  0
SECTION
  2
HEADER
  9
$ACADVER
  1
AC1015
  9
$ACADMAINTVER
 70
    20
  9
$DWGCODEPAGE
  3
ANSI_1252
  9
$INSBASE
 10
7262.43722143246
 20
-1205.110222246605
 30
0.0
  9
$EXTMIN
 10
7078.993693273701
 20
-1554.835120116711
 30
0.0
  9
$EXTMAX
 10
7633.34679080218
 20
-1143.641446185631
 30
0.0
  9
$LIMMIN
 10
0.0
 20
0.0
  9
$LIMMAX
 10
420.0
 20
297.0
  9
$ORTHOMODE
 70
     1
  9
$REGENMODE
 70
     1
  9
$FILLMODE
 70
     1
  9
$QTEXTMODE
 70
     0
  9
$MIRRTEXT
 70
     1
  9
$LTSCALE
 40
0.25
  9
$ATTMODE
 70
     1
  9
$TEXTSIZE
 40
5.0
  9
$TRACEWID
 40
10.0
  9
$TEXTSTYLE
  7
ROMANS
  9
$CLAYER
  8
ANCON-CONCRETE
  9
$CELTYPE
  6
BYLAYER
  9
$CECOLOR
 62
   256
  9
$CELTSCALE
 40
1.0
  9
$DISPSILH
 70
     0
  9
$DIMSCALE
 40
0.0
  9
$DIMASZ
 40
4.0
  9
$DIMEXO
 40
3.0
  9
$DIMDLI
 40
10.0
  9
$DIMRND
 40
0.0
  9
$DIMDLE
 40
1.25
  9
$DIMEXE
 40
3.0
  9
$DIMTP
 40
0.0
  9
$DIMTM
 40
0.0
  9
$DIMTXT
 40
3.0
  9
$DIMCEN
 40
-3.0
  9
$DIMTSZ
 40
0.0
  9
$DIMTOL
 70
     0
  9
$DIMLIM
 70
     0
  9
$DIMTIH
 70
     0
  9
$DIMTOH
 70
     0
  9
$DIMSE1
 70
     0
  9
$DIMSE2
 70
     0
  9
$DIMTAD
 70
     1
  9
$DIMZIN
 70
    12
  9
$DIMBLK
  1

  9
$DIMASO
 70
     1
  9
$DIMSHO
 70
     0
  9
$DIMPOST
  1

  9
$DIMAPOST
  1

  9
$DIMALT
 70
     0
  9
$DIMALTD
 70
     2
  9
$DIMALTF
 40
0.039
  9
$DIMLFAC
 40
1.0
  9
$DIMTOFL
 70
     0
  9
$DIMTVP
 40
1.5
  9
$DIMTIX
 70
     0
  9
$DIMSOXD
 70
     0
  9
$DIMSAH
 70
     0
  9
$DIMBLK1
  1

  9
$DIMBLK2
  1

  9
$DIMSTYLE
  2
1-2
  9
$DIMCLRD
 70
     0
  9
$DIMCLRE
 70
     0
  9
$DIMCLRT
 70
     0
  9
$DIMTFAC
 40
0.75
  9
$DIMGAP
 40
1.5
  9
$DIMJUST
 70
     0
  9
$DIMSD1
 70
     0
  9
$DIMSD2
 70
     0
  9
$DIMTOLJ
 70
     1
  9
$DIMTZIN
 70
    12
  9
$DIMALTZ
 70
    12
  9
$DIMALTTZ
 70
    12
  9
$DIMUPT
 70
     0
  9
$DIMDEC
 70
     2
  9
$DIMTDEC
 70
     2
  9
$DIMALTU
 70
     2
  9
$DIMALTTD
 70
     2
  9
$DIMTXSTY
  7
ROMANS
  9
$DIMAUNIT
 70
     0
  9
$DIMADEC
 70
     0
  9
$DIMALTRND
 40
0.0
  9
$DIMAZIN
 70
     0
  9
$DIMDSEP
 70
    46
  9
$DIMATFIT
 70
     3
  9
$DIMFRAC
 70
     0
  9
$DIMLDRBLK
  1

  9
$DIMLUNIT
 70
     2
  9
$DIMLWD
 70
    -2
  9
$DIMLWE
 70
    -2
  9
$DIMTMOVE
 70
     2
  9
$LUNITS
 70
     2
  9
$LUPREC
 70
     2
  9
$SKETCHINC
 40
1.0
  9
$FILLETRAD
 40
0.0
  9
$AUNITS
 70
     0
  9
$AUPREC
 70
     4
  9
$MENU
  1
acad
  9
$ELEVATION
 40
0.0
  9
$PELEVATION
 40
0.0
  9
$THICKNESS
 40
0.0
  9
$LIMCHECK
 70
     0
  9
$CHAMFERA
 40
0.0
  9
$CHAMFERB
 40
0.0
  9
$CHAMFERC
 40
0.0
  9
$CHAMFERD
 40
0.0
  9
$SKPOLY
 70
     0
  9
$TDCREATE
 40
2449527.571155093
  9
$TDUCREATE
 40
2449527.529488426
  9
$TDUPDATE
 40
2455062.513547454
  9
$TDUUPDATE
 40
2455062.471880787
  9
$TDINDWG
 40
0.8336585185
  9
$TDUSRTIMER
 40
0.8336585185
  9
$USRTIMER
 70
     1
  9
$ANGBASE
 50
0.0
  9
$ANGDIR
 70
     0
  9
$PDMODE
 70
     0
  9
$PDSIZE
 40
0.0
  9
$PLINEWID
 40
0.0
  9
$SPLFRAME
 70
     0
  9
$SPLINETYPE
 70
     6
  9
$SPLINESEGS
 70
     8
  9
$HANDSEED
  5
108
  9
$SURFTAB1
 70
    18
  9
$SURFTAB2
 70
    18
  9
$SURFTYPE
 70
     6
  9
$SURFU
 70
    18
  9
$SURFV
 70
    18
  9
$UCSBASE
  2

  9
$UCSNAME
  2

  9
$UCSORG
 10
0.0
 20
0.0
 30
0.0
  9
$UCSXDIR
 10
1.0
 20
0.0
 30
0.0
  9
$UCSYDIR
 10
0.0
 20
1.0
 30
0.0
  9
$UCSORTHOREF
  2

  9
$UCSORTHOVIEW
 70
     0
  9
$UCSORGTOP
 10
0.0
 20
0.0
 30
0.0
  9
$UCSORGBOTTOM
 10
0.0
 20
0.0
 30
0.0
  9
$UCSORGLEFT
 10
0.0
 20
0.0
 30
0.0
  9
$UCSORGRIGHT
 10
0.0
 20
0.0
 30
0.0
  9
$UCSORGFRONT
 10
0.0
 20
0.0
 30
0.0
  9
$UCSORGBACK
 10
0.0
 20
0.0
 30
0.0
  9
$PUCSBASE
  2

  9
$PUCSNAME
  2

  9
$PUCSORG
 10
0.0
 20
0.0
 30
0.0
  9
$PUCSXDIR
 10
1.0
 20
0.0
 30
0.0
  9
$PUCSYDIR
 10
0.0
 20
1.0
 30
0.0
  9
$PUCSORTHOREF
  2

  9
$PUCSORTHOVIEW
 70
     0
  9
$PUCSORGTOP
 10
0.0
 20
0.0
 30
0.0
  9
$PUCSORGBOTTOM
 10
0.0
 20
0.0
 30
0.0
  9
$PUCSORGLEFT
 10
0.0
 20
0.0
 30
0.0
  9
$PUCSORGRIGHT
 10
0.0
 20
0.0
 30
0.0
  9
$PUCSORGFRONT
 10
0.0
 20
0.0
 30
0.0
  9
$PUCSORGBACK
 10
0.0
 20
0.0
 30
0.0
  9
$USERI1
 70
     0
  9
$USERI2
 70
     0
  9
$USERI3
 70
     0
  9
$USERI4
 70
     0
  9
$USERI5
 70
     0
  9
$USERR1
 40
0.0
  9
$USERR2
 40
0.0
  9
$USERR3
 40
0.0
  9
$USERR4
 40
0.0
  9
$USERR5
 40
0.0
  9
$WORLDVIEW
 70
     1
  9
$SHADEDGE
 70
     3
  9
$SHADEDIF
 70
    70
  9
$TILEMODE
 70
     1
  9
$MAXACTVP
 70
    16
  9
$PINSBASE
 10
0.0
 20
0.0
 30
0.0
  9
$PLIMCHECK
 70
     0
  9
$PEXTMIN
 10
1.000000000000000E+20
 20
1.000000000000000E+20
 30
1.000000000000000E+20
  9
$PEXTMAX
 10
-1.000000000000000E+20
 20
-1.000000000000000E+20
 30
-1.000000000000000E+20
  9
$PLIMMIN
 10
0.0
 20
0.0
  9
$PLIMMAX
 10
420.0
 20
297.0
  9
$UNITMODE
 70
     0
  9
$VISRETAIN
 70
     0
  9
$PLINEGEN
 70
     0
  9
$PSLTSCALE
 70
     1
  9
$TREEDEPTH
 70
  3020
  9
$CMLSTYLE
  2
STANDARD
  9
$CMLJUST
 70
     0
  9
$CMLSCALE
 40
1.0
  9
$PROXYGRAPHICS
 70
     1
  9
$MEASUREMENT
 70
     0
  9
$CELWEIGHT
370
    -1
  9
$ENDCAPS
280
     0
  9
$JOINSTYLE
280
     0
  9
$LWDISPLAY
290
     0
  9
$INSUNITS
 70
     0
  9
$HYPERLINKBASE
  1

  9
$STYLESHEET
  1

  9
$XEDIT
290
     1
  9
$CEPSNTYPE
380
     0
  9
$PSTYLEMODE
290
     1
  9
$FINGERPRINTGUID
  2
{BA8DCC62-0F4A-496B-B42A-381FA2BD7C74}
  9
$VERSIONGUID
  2
{3D0EA16E-D295-42DB-BB14-F5DEA7F09795}
  9
$EXTNAMES
290
     1
  9
$PSVPSCALE
 40
0.0
  9
$OLESTARTUP
290
     0
  0
ENDSEC
  0
SECTION
  2
CLASSES
  0
CLASS
  1
DICTIONARYVAR
  2
AcDbDictionaryVar
  3
ObjectDBX Classes
 90
        0
280
     0
281
     0
  0
CLASS
  1
LWPOLYLINE
  2
AcDbPolyline
  3
ObjectDBX Classes
 90
    32768
280
     0
281
     1
  0
CLASS
  1
XRECORD
  2
AcDbXrecord
  3
ObjectDBX Classes
 90
        0
280
     0
281
     0
  0
CLASS
  1
ACDBDICTIONARYWDFLT
  2
AcDbDictionaryWithDefault
  3
ObjectDBX Classes
 90
        0
280
     0
281
     0
  0
CLASS
  1
ACDBPLACEHOLDER
  2
AcDbPlaceHolder
  3
ObjectDBX Classes
 90
        0
280
     0
281
     0
  0
CLASS
  1
LAYOUT
  2
AcDbLayout
  3
ObjectDBX Classes
 90
        0
280
     0
281
     0
  0
CLASS
  1
LONG_TRANSACTION
  2
AcDbLongTransaction
  3
ObjectDBX Classes
 90
    32768
280
     0
281
     0
  0
CLASS
  1
LWPOLYLINE
  2
AcDbPolyline
  3
ObjectDBX Classes
 90
    32768
280
     0
281
     1
  0
CLASS
  1
HATCH
  2
AcDbHatch
  3
ObjectDBX Classes
 90
    32768
280
     0
281
     1
  0
CLASS
  1
XRECORD
  2
AcDbXrecord
  3
ObjectDBX Classes
 90
        0
280
     0
281
     0
  0
CLASS
  1
TABLESTYLE
  2
AcDbTableStyle
  3
ObjectDBX Classes
 90
     2047
280
     0
281
     0
  0
CLASS
  1
MATERIAL
  2
AcDbMaterial
  3
ObjectDBX Classes
 90
    32768
280
     0
281
     0
  0
CLASS
  1
VISUALSTYLE
  2
AcDbVisualStyle
  3
ObjectDBX Classes
 90
     4095
280
     1
281
     0
  0
CLASS
  1
SCALE
  2
AcDbScale
  3
ObjectDBX Classes
 90
    33921
280
     1
281
     0
  0
CLASS
  1
MLEADERSTYLE
  2
AcDbMLeaderStyle
  3
ACDB_MLEADERSTYLE_CLASS
 90
    36863
280
     1
281
     0
  0
CLASS
  1
PLOTSETTINGS
  2
AcDbPlotSettings
  3
ObjectDBX Classes
 90
    32768
280
     0
281
     0
  0
CLASS
  1
DIMASSOC
  2
AcDbDimAssoc
  3
"AcDbDimAssoc|Product Desc:     AcDim ARX App For Dimension|Company:          Autodesk, Inc.|WEB Address:      www.autodesk.com"
 90
    32768
280
     0
281
     0
  0
CLASS
  1
SORTENTSTABLE
  2
AcDbSortentsTable
  3
ObjectDBX Classes
 90
        0
280
     0
281
     0
  0
CLASS
  1
CELLSTYLEMAP
  2
AcDbCellStyleMap
  3
ObjectDBX Classes
 90
     1152
280
     1
281
     0
  0
CLASS
  1
AEC_REFEDIT_STATUS_TRACKER
  2
AecDbRefEditStatusTracker
  3
AecArchBase50|Product Desc: Autodesk Architectural Desktop 2007 |Company: Autodesk,Inc. |WEB Address: www.autodesk.com
 90
    32897
280
     1
281
     0
  0
CLASS
  1
NPOCOLLECTION
  2
AcDbImpNonPersistentObjectsCollection
  3
ObjectDBX Classes
 90
    33921
280
     1
281
     0
  0
ENDSEC
  0
SECTION
  2
TABLES
  0
TABLE
  2
VPORT
  5
23
102
{ACAD_XDICTIONARY
360
25
102
}
330
0
100
AcDbSymbolTable
 70
     2
  0
VPORT
  5
102
330
23
100
AcDbSymbolTableRecord
100
AcDbViewportTableRecord
  2
*Active
 70
     0
 10
0.0
 20
0.0
 11
1.0
 21
1.0
 12
7840.10891426643
 22
-1382.868148174297
 13
0.0
 23
0.0
 14
5.0
 24
5.0
 15
10.0
 25
10.0
 16
0.0
 26
0.0
 36
1.0
 17
0.0
 27
0.0
 37
0.0
 40
1169.209179954094
 41
2.573816155988858
 42
50.0
 43
0.0
 44
0.0
 50
0.0
 51
0.0
 71
     0
 72
   100
 73
     1
 74
     1
 75
     0
 76
     0
 77
     0
 78
     1
281
     0
 65
     1
110
0.0
120
0.0
130
0.0
111
1.0
121
0.0
131
0.0
112
0.0
122
1.0
132
0.0
 79
     0
146
0.0
  0
ENDTAB
  0
TABLE
  2
LTYPE
  5
1E
330
0
100
AcDbSymbolTable
 70
     3
  0
LTYPE
  5
1F
330
1E
100
AcDbSymbolTableRecord
100
AcDbLinetypeTableRecord
  2
BYBLOCK
 70
     0
  3

 72
    65
 73
     0
 40
0.0
  0
LTYPE
  5
20
330
1E
100
AcDbSymbolTableRecord
100
AcDbLinetypeTableRecord
  2
BYLAYER
 70
     0
  3

 72
    65
 73
     0
 40
0.0
  0
LTYPE
  5
D
330
1E
100
AcDbSymbolTableRecord
100
AcDbLinetypeTableRecord
  2
CONTINUOUS
 70
     0
  3
Solid line
 72
    65
 73
     0
 40
0.0
  0
LTYPE
  5
46
330
1E
100
AcDbSymbolTableRecord
100
AcDbLinetypeTableRecord
  2
DASHED1_02
 70
     0
  3
___  ___  ___  ___  ___  ___  ___  ___  ___  __
 72
    65
 73
     2
 40
18.0
 49
12.0
 74
     0
 49
-6.0
 74
     0
  0
LTYPE
  5
4E
330
1E
100
AcDbSymbolTableRecord
100
AcDbLinetypeTableRecord
  2
CENTER
 70
     0
  3
Center ____ _ ____ _ ____ _ ____ _ ____ _ ____
 72
    65
 73
     4
 40
50.8
 49
31.75
 74
     0
 49
-6.349999999999999
 74
     0
 49
6.349999999999999
 74
     0
 49
-6.349999999999999
 74
     0
  0
ENDTAB
  0
TABLE
  2
LAYER
  5
18
102
{ACAD_XDICTIONARY
360
19
102
}
330
0
100
AcDbSymbolTable
 70
     5
  0
LAYER
  5
7
102
{ACAD_XDICTIONARY
360
8
102
}
330
18
100
AcDbSymbolTableRecord
100
AcDbLayerTableRecord
  2
0
 70
     0
 62
     7
  6
CONTINUOUS
370
    -3
390
A
  0
LAYER
  5
35
102
{ACAD_XDICTIONARY
360
36
102
}
330
18
100
AcDbSymbolTableRecord
100
AcDbLayerTableRecord
  2
ANCON-CONCRETE
 70
     0
 62
     2
  6
CONTINUOUS
370
    -3
390
A
  0
LAYER
  5
D5
102
{ACAD_XDICTIONARY
360
D6
102
}
330
18
100
AcDbSymbolTableRecord
100
AcDbLayerTableRecord
  2
ANCON-TEXT
 70
     0
 62
     6
  6
CONTINUOUS
370
    -3
390
A
  0
LAYER
  5
4B
102
{ACAD_XDICTIONARY
360
4C
102
}
330
18
100
AcDbSymbolTableRecord
100
AcDbLayerTableRecord
  2
CENTRE
 70
     0
 62
     1
  6
CENTER
370
    -3
390
A
  0
LAYER
  5
3E
330
18
100
AcDbSymbolTableRecord
100
AcDbLayerTableRecord
  2
ANCON-HLD
 70
     0
 62
     3
  6
CONTINUOUS
370
    -3
390
A
1001
AcAecLayerStandard
1000

1000

  0
ENDTAB
  0
TABLE
  2
STYLE
  5
1B
330
0
100
AcDbSymbolTable
 70
     2
  0
STYLE
  5
1C
330
1B
100
AcDbSymbolTableRecord
100
AcDbTextStyleTableRecord
  2
STANDARD
 70
     0
 40
0.0
 41
1.0
 50
0.0
 71
     0
 42
6.0
  3
txt.shx
  4

  0
STYLE
  5
2D
330
1B
100
AcDbSymbolTableRecord
100
AcDbTextStyleTableRecord
  2
ROMANS
 70
     0
 40
0.0
 41
1.0
 50
0.0
 71
     0
 42
5.0
  3
romans
  4

  0
ENDTAB
  0
TABLE
  2
VIEW
  5
21
330
0
100
AcDbSymbolTable
 70
     0
  0
ENDTAB
  0
TABLE
  2
UCS
  5
22
330
0
100
AcDbSymbolTable
 70
     0
  0
ENDTAB
  0
TABLE
  2
APPID
  5
2A
330
0
100
AcDbSymbolTable
 70
     3
  0
APPID
  5
29
330
2A
100
AcDbSymbolTableRecord
100
AcDbRegAppTableRecord
  2
ACAD
 70
     0
  0
APPID
  5
11
330
2A
100
AcDbSymbolTableRecord
100
AcDbRegAppTableRecord
  2
ACAD_PSEXT
 70
     0
  0
APPID
  5
3F
330
2A
100
AcDbSymbolTableRecord
100
AcDbRegAppTableRecord
  2
AcAecLayerStandard
 70
     0
  0
ENDTAB
  0
TABLE
  2
DIMSTYLE
  5
2B
330
0
100
AcDbSymbolTable
 70
     1
100
AcDbDimStyleTable
 71
     1
340
2C
  0
DIMSTYLE
105
2C
330
2B
100
AcDbSymbolTableRecord
100
AcDbDimStyleTableRecord
  2
1-2
 70
     0
 40
0.0
 41
4.0
 42
3.0
 43
10.0
 44
3.0
 46
1.25
 73
     0
 74
     0
 77
     1
 78
    12
140
3.0
141
-3.0
143
0.039
145
1.5
146
0.75
147
1.5
271
     2
272
     2
279
     2
284
    12
285
    12
286
    12
340
2D
  0
ENDTAB
  0
TABLE
  2
BLOCK_RECORD
  5
1
330
0
100
AcDbSymbolTable
 70
     0
  0
BLOCK_RECORD
  5
2
102
{ACAD_XDICTIONARY
360
3
102
}
330
1
100
AcDbSymbolTableRecord
100
AcDbBlockTableRecord
  2
*MODEL_SPACE
340
F
  0
BLOCK_RECORD
  5
12
102
{ACAD_XDICTIONARY
360
13
102
}
330
1
100
AcDbSymbolTableRecord
100
AcDbBlockTableRecord
  2
*PAPER_SPACE
340
17
  0
ENDTAB
  0
ENDSEC
  0
SECTION
  2
BLOCKS
  0
BLOCK
  5
6
330
2
100
AcDbEntity
  8
0
100
AcDbBlockBegin
  2
*MODEL_SPACE
 70
     0
 10
0.0
 20
0.0
 30
0.0
  3
*MODEL_SPACE
  1

  0
ENDBLK
  5
E
330
2
100
AcDbEntity
  8
0
100
AcDbBlockEnd
  0
BLOCK
  5
15
330
12
100
AcDbEntity
 67
     1
  8
0
100
AcDbBlockBegin
  2
*PAPER_SPACE
 70
     0
 10
0.0
 20
0.0
 30
0.0
  3
*PAPER_SPACE
  1

  0
ENDBLK
  5
16
330
12
100
AcDbEntity
 67
     1
  8
0
100
AcDbBlockEnd
  0
ENDSEC
  0
SECTION
  2
ENTITIES
  0
LINE
  5
3D
330
2
100
AcDbEntity
  8
ANCON-HLD
100
AcDbLine
 10
7112.437221432459
 20
-1393.360690745886
 30
0.0
 11
7262.43722143246
 21
-1393.360690745886
 31
0.0
  0
LINE
  5
40
330
2
100
AcDbEntity
  8
ANCON-HLD
100
AcDbLine
 10
7112.437221432459
 20
-1375.360690745886
 30
0.0
 11
7262.43722143246
 21
-1375.360690745886
 31
0.0
  0
LINE
  5
41
330
2
100
AcDbEntity
  8
ANCON-HLD
100
AcDbLine
 10
7112.437221432459
 20
-1196.110222246605
 30
0.0
 11
7262.43722143246
 21
-1196.110222246605
 31
0.0
  0
LINE
  5
42
330
2
100
AcDbEntity
  8
ANCON-HLD
100
AcDbLine
 10
7112.437221432459
 20
-1214.110222246605
 30
0.0
 11
7262.43722143246
 21
-1214.110222246605
 31
0.0
  0
LINE
  5
43
330
2
100
AcDbEntity
  8
ANCON-HLD
100
AcDbLine
 10
7112.437221432459
 20
-1393.360690745886
 30
0.0
 11
7112.437221432459
 21
-1375.360690745886
 31
0.0
  0
LINE
  5
44
330
2
100
AcDbEntity
  8
ANCON-HLD
100
AcDbLine
 10
7112.437221432459
 20
-1196.110222246605
 30
0.0
 11
7112.437221432459
 21
-1214.110222246605
 31
0.0
  0
LINE
  5
45
330
2
100
AcDbEntity
  8
ANCON-HLD
  6
DASHED1_02
100
AcDbLine
 10
7262.43722143246
 20
-1393.360690745886
 30
0.0
 11
7332.43722143246
 21
-1393.360690745886
 31
0.0
  0
LINE
  5
47
330
2
100
AcDbEntity
  8
ANCON-HLD
  6
DASHED1_02
100
AcDbLine
 10
7262.43722143246
 20
-1375.360690745886
 30
0.0
 11
7332.43722143246
 21
-1375.360690745886
 31
0.0
  0
LINE
  5
48
330
2
100
AcDbEntity
  8
ANCON-HLD
100
AcDbLine
 10
7262.43722143246
 20
-1419.360690745886
 30
0.0
 11
7332.43722143246
 21
-1419.360690745886
 31
0.0
  0
LINE
  5
49
330
2
100
AcDbEntity
  8
ANCON-HLD
100
AcDbLine
 10
7262.43722143246
 20
-1349.360690745886
 30
0.0
 11
7332.43722143246
 21
-1349.360690745886
 31
0.0
  0
LINE
  5
4A
330
2
100
AcDbEntity
  8
CENTRE
 48
0.25
100
AcDbLine
 10
7297.437221432459
 20
-1395.610690745886
 30
0.0
 11
7297.437221432459
 21
-1373.110690745886
 31
0.0
  0
CIRCLE
  5
4F
330
2
100
AcDbEntity
  8
ANCON-HLD
100
AcDbCircle
 10
7297.437221432459
 20
-1384.360690745886
 30
0.0
 40
9.0
  0
LINE
  5
50
330
2
100
AcDbEntity
  8
ANCON-HLD
100
AcDbLine
 10
7265.43722143246
 20
-1419.360690745886
 30
0.0
 11
7265.43722143246
 21
-1349.360690745886
 31
0.0
  0
LINE
  5
51
330
2
100
AcDbEntity
  8
ANCON-HLD
100
AcDbLine
 10
7262.43722143246
 20
-1419.360690745886
 30
0.0
 11
7262.43722143246
 21
-1349.360690745886
 31
0.0
  0
LINE
  5
52
330
2
100
AcDbEntity
  8
ANCON-HLD
100
AcDbLine
 10
7332.43722143246
 20
-1419.360690745886
 30
0.0
 11
7332.43722143246
 21
-1349.360690745886
 31
0.0
  0
LINE
  5
53
330
2
100
AcDbEntity
  8
ANCON-HLD
100
AcDbLine
 10
7382.437221432461
 20
-1393.360690745886
 30
0.0
 11
7382.43722143246
 21
-1375.360690745886
 31
0.0
  0
LINE
  5
54
330
2
100
AcDbEntity
  8
ANCON-HLD
100
AcDbLine
 10
7332.43722143246
 20
-1393.360690745886
 30
0.0
 11
7382.43722143246
 21
-1393.360690745886
 31
0.0
  0
LINE
  5
55
330
2
100
AcDbEntity
  8
ANCON-HLD
100
AcDbLine
 10
7332.43722143246
 20
-1375.360690745886
 30
0.0
 11
7382.43722143246
 21
-1375.360690745886
 31
0.0
  0
LINE
  5
56
330
2
100
AcDbEntity
  8
ANCON-HLD
100
AcDbLine
 10
7332.43722143246
 20
-1219.519124546812
 30
0.0
 11
7332.43722143246
 21
-1190.701319946398
 31
0.0
  0
LINE
  5
57
330
2
100
AcDbEntity
  8
ANCON-HLD
100
AcDbLine
 10
7329.937221432459
 20
-1219.519124546812
 30
0.0
 11
7329.937221432459
 21
-1190.701319946398
 31
0.0
  0
LINE
  5
58
330
2
100
AcDbEntity
  8
ANCON-HLD
100
AcDbLine
 10
7265.437221432461
 20
-1235.110222246605
 30
0.0
 11
7265.437221432461
 21
-1175.110222246605
 31
0.0
  0
LINE
  5
59
330
2
100
AcDbEntity
  8
ANCON-HLD
100
AcDbLine
 10
7262.43722143246
 20
-1235.110222246605
 30
0.0
 11
7262.43722143246
 21
-1175.110222246605
 31
0.0
  0
ARC
  5
5A
330
2
100
AcDbEntity
  8
ANCON-HLD
100
AcDbCircle
 10
7297.437221432459
 20
-1197.610222246605
 30
0.0
 40
45.0
100
AcDbArc
 50
229.06727542587
 51
310.93272457413
  0
ARC
  5
5B
330
2
100
AcDbEntity
  8
ANCON-HLD
100
AcDbCircle
 10
7297.437221432459
 20
-1197.610222246605
 30
0.0
 40
42.5
100
AcDbArc
 50
229.06727542587
 51
310.93272457413
  0
LINE
  5
5C
330
2
100
AcDbEntity
  8
ANCON-HLD
100
AcDbLine
 10
7265.437221432461
 20
-1228.846503599902
 30
0.0
 11
7267.468471432461
 21
-1227.389100622857
 31
0.0
  0
ARC
  5
5D
330
2
100
AcDbEntity
  8
ANCON-HLD
100
AcDbCircle
 10
7278.437221432459
 20
-1219.519124546812
 30
0.0
 40
16.0
100
AcDbArc
 50
215.6590876961578
 51
229.06727542587
  0
ARC
  5
5E
330
2
100
AcDbEntity
  8
ANCON-HLD
100
AcDbCircle
 10
7278.437221432459
 20
-1219.519124546812
 30
0.0
 40
13.5
100
AcDbArc
 50
215.6590876961578
 51
229.06727542587
  0
LINE
  5
5F
330
2
100
AcDbEntity
  8
ANCON-HLD
100
AcDbLine
 10
7262.43722143246
 20
-1235.110222246605
 30
0.0
 11
7265.437221432461
 21
-1235.110222246605
 31
0.0
  0
LINE
  5
60
330
2
100
AcDbEntity
  8
ANCON-HLD
  6
DASHED1_02
 48
0.25
100
AcDbLine
 10
7288.437221432459
 20
-1241.701037616703
 30
0.0
 11
7288.937221432459
 21
-1239.25154787392
 31
0.0
  0
LINE
  5
61
330
2
100
AcDbEntity
  8
ANCON-HLD
  6
DASHED1_02
 48
0.25
100
AcDbLine
 10
7306.437221432459
 20
-1241.701037616703
 30
0.0
 11
7305.93722143246
 21
-1239.25154787392
 31
0.0
  0
ARC
  5
62
330
2
100
AcDbEntity
  8
ANCON-HLD
100
AcDbCircle
 10
7316.43722143246
 20
-1219.519124546812
 30
0.0
 40
13.5
100
AcDbArc
 50
310.93272457413
 51
0.0
  0
ARC
  5
63
330
2
100
AcDbEntity
  8
ANCON-HLD
100
AcDbCircle
 10
7316.43722143246
 20
-1219.519124546812
 30
0.0
 40
16.0
100
AcDbArc
 50
310.93272457413
 51
0.0
  0
LINE
  5
64
330
2
100
AcDbEntity
  8
ANCON-HLD
100
AcDbLine
 10
7265.437221432461
 20
-1214.110222246604
 30
0.0
 11
7329.937221432459
 21
-1214.110222246605
 31
0.0
  0
LINE
  5
65
330
2
100
AcDbEntity
  8
ANCON-HLD
100
AcDbLine
 10
7265.437221432461
 20
-1196.110222246604
 30
0.0
 11
7329.937221432459
 21
-1196.110222246605
 31
0.0
  0
ARC
  5
66
330
2
100
AcDbEntity
  8
ANCON-HLD
100
AcDbCircle
 10
7297.437221432459
 20
-1212.610222246605
 30
0.0
 40
42.5
100
AcDbArc
 50
49.06727542586995
 51
130.93272457413
  0
ARC
  5
67
330
2
100
AcDbEntity
  8
ANCON-HLD
100
AcDbCircle
 10
7297.437221432459
 20
-1212.610222246605
 30
0.0
 40
45.0
100
AcDbArc
 50
49.06727542586995
 51
130.93272457413
  0
LINE
  5
68
330
2
100
AcDbEntity
  8
ANCON-HLD
100
AcDbLine
 10
7265.437221432461
 20
-1181.373940893309
 30
0.0
 11
7267.468471432461
 21
-1182.831343870353
 31
0.0
  0
LINE
  5
69
330
2
100
AcDbEntity
  8
ANCON-HLD
100
AcDbLine
 10
7262.43722143246
 20
-1175.110222246605
 30
0.0
 11
7265.437221432461
 21
-1175.110222246605
 31
0.0
  0
ARC
  5
6A
330
2
100
AcDbEntity
  8
ANCON-HLD
100
AcDbCircle
 10
7278.437221432459
 20
-1190.701319946398
 30
0.0
 40
13.5
100
AcDbArc
 50
130.93272457413
 51
144.3409123038422
  0
ARC
  5
6B
330
2
100
AcDbEntity
  8
ANCON-HLD
100
AcDbCircle
 10
7278.437221432459
 20
-1190.701319946398
 30
0.0
 40
16.0
100
AcDbArc
 50
130.93272457413
 51
144.3409123038422
  0
LINE
  5
6C
330
2
100
AcDbEntity
  8
ANCON-HLD
  6
DASHED1_02
 48
0.25
100
AcDbLine
 10
7288.437221432459
 20
-1168.519406876507
 30
0.0
 11
7288.937221432459
 21
-1170.968896619291
 31
0.0
  0
LINE
  5
6D
330
2
100
AcDbEntity
  8
ANCON-HLD
  6
DASHED1_02
 48
0.25
100
AcDbLine
 10
7306.437221432459
 20
-1168.519406876507
 30
0.0
 11
7305.93722143246
 21
-1170.968896619291
 31
0.0
  0
LINE
  5
6E
330
2
100
AcDbEntity
  8
ANCON-HLD
100
AcDbLine
 10
7332.43722143246
 20
-1196.110222246605
 30
0.0
 11
7382.43722143246
 21
-1196.110222246605
 31
0.0
  0
LINE
  5
6F
330
2
100
AcDbEntity
  8
ANCON-HLD
100
AcDbLine
 10
7332.43722143246
 20
-1214.110222246605
 30
0.0
 11
7382.43722143246
 21
-1214.110222246605
 31
0.0
  0
ARC
  5
70
330
2
100
AcDbEntity
  8
ANCON-HLD
100
AcDbCircle
 10
7316.43722143246
 20
-1190.701319946398
 30
0.0
 40
13.5
100
AcDbArc
 50
0.0
 51
49.06727542586995
  0
ARC
  5
71
330
2
100
AcDbEntity
  8
ANCON-HLD
100
AcDbCircle
 10
7316.43722143246
 20
-1190.701319946398
 30
0.0
 40
16.0
100
AcDbArc
 50
0.0
 51
49.06727542586995
  0
LINE
  5
72
330
2
100
AcDbEntity
  8
ANCON-HLD
  6
DASHED1_02
 48
0.25
100
AcDbLine
 10
7329.937221432459
 20
-1196.110222246605
 30
0.0
 11
7332.43722143246
 21
-1196.110222246605
 31
0.0
  0
LINE
  5
73
330
2
100
AcDbEntity
  8
ANCON-HLD
  6
DASHED1_02
 48
0.25
100
AcDbLine
 10
7329.937221432459
 20
-1214.110222246605
 30
0.0
 11
7332.43722143246
 21
-1214.110222246605
 31
0.0
  0
LINE
  5
74
330
2
100
AcDbEntity
  8
ANCON-HLD
100
AcDbLine
 10
7382.43722143246
 20
-1196.110222246605
 30
0.0
 11
7382.43722143246
 21
-1214.110222246605
 31
0.0
  0
LINE
  5
75
330
2
100
AcDbEntity
  8
CENTRE
 48
0.5
100
AcDbLine
 10
7100.955746192015
 20
-1205.110222246605
 30
0.0
 11
7395.828615634359
 21
-1205.110222246605
 31
0.0
  0
LINE
  5
76
330
2
100
AcDbEntity
  8
CENTRE
 48
0.5
100
AcDbLine
 10
7100.955746192015
 20
-1384.360690745886
 30
0.0
 11
7395.828615634356
 21
-1384.360690745886
 31
0.0
  0
LINE
  5
77
330
2
100
AcDbEntity
  8
ANCON-HLD
100
AcDbLine
 10
7546.668787724318
 20
-1175.110222246605
 30
0.0
 11
7452.668787724316
 21
-1175.110222246604
 31
0.0
  0
LINE
  5
78
330
2
100
AcDbEntity
  8
ANCON-HLD
100
AcDbLine
 10
7546.668787724318
 20
-1235.110222246605
 30
0.0
 11
7452.668787724315
 21
-1235.110222246605
 31
0.0
  0
LINE
  5
79
330
2
100
AcDbEntity
  8
ANCON-HLD
100
AcDbLine
 10
7452.668787724315
 20
-1235.110222246605
 30
0.0
 11
7452.668787724316
 21
-1175.110222246604
 31
0.0
  0
CIRCLE
  5
7A
330
2
100
AcDbEntity
  8
ANCON-HLD
100
AcDbCircle
 10
7457.668787724315
 20
-1230.110222246605
 30
0.0
 40
2.5
  0
LINE
  5
7B
330
2
100
AcDbEntity
  8
CENTRE
 48
0.125
100
AcDbLine
 10
7457.668787724315
 20
-1225.110222246605
 30
0.0
 11
7457.668787724315
 21
-1235.110222246605
 31
0.0
  0
LINE
  5
7C
330
2
100
AcDbEntity
  8
CENTRE
 48
0.125
100
AcDbLine
 10
7452.668787724315
 20
-1230.110222246605
 30
0.0
 11
7462.668787724315
 21
-1230.110222246605
 31
0.0
  0
LINE
  5
7D
330
2
100
AcDbEntity
  8
CENTRE
 48
0.125
100
AcDbLine
 10
7457.668787724315
 20
-1175.110222246605
 30
0.0
 11
7457.668787724315
 21
-1185.110222246605
 31
0.0
  0
CIRCLE
  5
7E
330
2
100
AcDbEntity
  8
ANCON-HLD
100
AcDbCircle
 10
7457.668787724315
 20
-1180.110222246605
 30
0.0
 40
2.5
  0
LINE
  5
7F
330
2
100
AcDbEntity
  8
CENTRE
 48
0.125
100
AcDbLine
 10
7452.668787724315
 20
-1180.110222246605
 30
0.0
 11
7462.668787724315
 21
-1180.110222246605
 31
0.0
  0
LINE
  5
80
330
2
100
AcDbEntity
  8
CENTRE
 48
0.5
100
AcDbLine
 10
7499.668787724314
 20
-1247.297722246605
 30
0.0
 11
7499.668787724314
 21
-1162.922722246605
 31
0.0
  0
LINE
  5
81
330
2
100
AcDbEntity
  8
ANCON-HLD
100
AcDbLine
 10
7546.668787724318
 20
-1235.110222246605
 30
0.0
 11
7546.668787724318
 21
-1175.110222246605
 31
0.0
  0
CIRCLE
  5
82
330
2
100
AcDbEntity
  8
ANCON-HLD
100
AcDbCircle
 10
7499.668787724314
 20
-1205.110222246605
 30
0.0
 40
11.0
  0
CIRCLE
  5
83
330
2
100
AcDbEntity
  8
ANCON-HLD
100
AcDbCircle
 10
7499.668787724314
 20
-1205.110222246605
 30
0.0
 40
9.5
  0
LINE
  5
84
330
2
100
AcDbEntity
  8
ANCON-HLD
100
AcDbLine
 10
7464.668787724315
 20
-1242.610222246605
 30
0.0
 11
7464.668787724315
 21
-1235.110222246605
 31
0.0
  0
LINE
  5
85
330
2
100
AcDbEntity
  8
ANCON-HLD
100
AcDbLine
 10
7534.668787724317
 20
-1242.610222246605
 30
0.0
 11
7534.668787724317
 21
-1235.110222246605
 31
0.0
  0
LINE
  5
86
330
2
100
AcDbEntity
  8
CENTRE
 48
0.125
100
AcDbLine
 10
7541.668787724316
 20
-1225.110222246605
 30
0.0
 11
7541.668787724316
 21
-1235.110222246605
 31
0.0
  0
CIRCLE
  5
87
330
2
100
AcDbEntity
  8
ANCON-HLD
100
AcDbCircle
 10
7541.668787724316
 20
-1230.110222246605
 30
0.0
 40
2.5
  0
LINE
  5
88
330
2
100
AcDbEntity
  8
CENTRE
 48
0.125
100
AcDbLine
 10
7536.668787724316
 20
-1230.110222246605
 30
0.0
 11
7546.668787724318
 21
-1230.110222246605
 31
0.0
  0
LINE
  5
89
330
2
100
AcDbEntity
  8
CENTRE
 48
0.5
100
AcDbLine
 10
7513.418787724315
 20
-1205.110222246605
 30
0.0
 11
7485.918787724314
 21
-1205.110222246605
 31
0.0
  0
LINE
  5
8A
330
2
100
AcDbEntity
  8
ANCON-HLD
100
AcDbLine
 10
7534.668787724315
 20
-1167.610222246605
 30
0.0
 11
7509.168787724313
 21
-1167.610222246605
 31
0.0
  0
LINE
  5
8B
330
2
100
AcDbEntity
  8
ANCON-HLD
100
AcDbLine
 10
7464.668787724315
 20
-1175.110222246604
 30
0.0
 11
7464.668787724315
 21
-1167.610222246605
 31
0.0
  0
LINE
  5
8C
330
2
100
AcDbEntity
  8
CENTRE
 48
0.125
100
AcDbLine
 10
7541.668787724316
 20
-1175.110222246605
 30
0.0
 11
7541.668787724316
 21
-1185.110222246605
 31
0.0
  0
CIRCLE
  5
8D
330
2
100
AcDbEntity
  8
ANCON-HLD
100
AcDbCircle
 10
7541.668787724316
 20
-1180.110222246605
 30
0.0
 40
2.5
  0
LINE
  5
8E
330
2
100
AcDbEntity
  8
CENTRE
 48
0.125
100
AcDbLine
 10
7536.668787724316
 20
-1180.110222246605
 30
0.0
 11
7546.668787724318
 21
-1180.110222246605
 31
0.0
  0
LINE
  5
8F
330
2
100
AcDbEntity
  8
ANCON-HLD
100
AcDbLine
 10
7534.668787724317
 20
-1175.110222246604
 30
0.0
 11
7534.668787724315
 21
-1167.610222246605
 31
0.0
  0
LINE
  5
90
330
2
100
AcDbEntity
  8
ANCON-HLD
100
AcDbLine
 10
7101.065106891617
 20
-1373.360690745886
 30
0.0
 11
7171.983728444222
 21
-1373.360690745886
 31
0.0
  0
LINE
  5
91
330
2
100
AcDbEntity
  8
ANCON-HLD
100
AcDbLine
 10
7171.983728444222
 20
-1395.360690745886
 30
0.0
 11
7101.065106891617
 21
-1395.360690745886
 31
0.0
  0
LINE
  5
92
330
2
100
AcDbEntity
  8
CENTRE
 48
0.5
100
AcDbLine
 10
7207.43722143246
 20
-1370.610690745886
 30
0.0
 11
7207.43722143246
 21
-1398.110690745886
 31
0.0
  0
LINE
  5
93
330
2
100
AcDbEntity
  8
ANCON-HLD
100
AcDbLine
 10
7239.437221432459
 20
-1337.360690745886
 30
0.0
 11
7239.437221432459
 21
-1431.360690745886
 31
0.0
  0
LINE
  5
94
330
2
100
AcDbEntity
  8
ANCON-HLD
100
AcDbLine
 10
7242.437221432459
 20
-1337.360690745886
 30
0.0
 11
7242.437221432459
 21
-1431.360690745886
 31
0.0
  0
LINE
  5
95
330
2
100
AcDbEntity
  8
ANCON-HLD
100
AcDbLine
 10
7172.437221432459
 20
-1349.360690745886
 30
0.0
 11
7172.437221432459
 21
-1419.360690745886
 31
0.0
  0
LINE
  5
96
330
2
100
AcDbEntity
  8
ANCON-HLD
100
AcDbLine
 10
7239.437221432459
 20
-1349.360690745886
 30
0.0
 11
7172.437221432459
 21
-1349.360690745886
 31
0.0
  0
LINE
  5
97
330
2
100
AcDbEntity
  8
CENTRE
 48
0.125
100
AcDbLine
 10
7248.937221432459
 20
-1342.360690745886
 30
0.0
 11
7232.937221432459
 21
-1342.360690745886
 31
0.0
  0
LINE
  5
98
330
2
100
AcDbEntity
  8
ANCON-HLD
100
AcDbLine
 10
7242.437221432459
 20
-1337.360690745886
 30
0.0
 11
7239.437221432459
 21
-1337.360690745886
 31
0.0
  0
LINE
  5
99
330
2
100
AcDbEntity
  8
ANCON-HLD
100
AcDbLine
 10
7242.437221432459
 20
-1339.860690745886
 30
0.0
 11
7239.437221432459
 21
-1339.860690745886
 31
0.0
  0
LINE
  5
9A
330
2
100
AcDbEntity
  8
ANCON-HLD
100
AcDbLine
 10
7242.437221432459
 20
-1344.860690745886
 30
0.0
 11
7239.437221432459
 21
-1344.860690745886
 31
0.0
  0
LINE
  5
9B
330
2
100
AcDbEntity
  8
CENTRE
 48
0.5
100
AcDbLine
 10
7193.687221432459
 20
-1384.360690745886
 30
0.0
 11
7221.18722143246
 21
-1384.360690745886
 31
0.0
  0
CIRCLE
  5
9C
330
2
100
AcDbEntity
  8
ANCON-HLD
100
AcDbCircle
 10
7207.43722143246
 20
-1384.360690745886
 30
0.0
 40
11.0
  0
LINE
  5
9D
330
2
100
AcDbEntity
  8
ANCON-HLD
100
AcDbLine
 10
7239.437221432459
 20
-1419.360690745886
 30
0.0
 11
7172.437221432459
 21
-1419.360690745886
 31
0.0
  0
LINE
  5
9E
330
2
100
AcDbEntity
  8
CENTRE
 48
0.125
100
AcDbLine
 10
7248.937221432459
 20
-1426.360690745886
 30
0.0
 11
7232.937221432459
 21
-1426.360690745886
 31
0.0
  0
LINE
  5
9F
330
2
100
AcDbEntity
  8
ANCON-HLD
100
AcDbLine
 10
7242.437221432459
 20
-1423.860690745886
 30
0.0
 11
7239.437221432459
 21
-1423.860690745886
 31
0.0
  0
LINE
  5
A0
330
2
100
AcDbEntity
  8
ANCON-HLD
100
AcDbLine
 10
7242.437221432459
 20
-1431.360690745886
 30
0.0
 11
7239.437221432459
 21
-1431.360690745886
 31
0.0
  0
LINE
  5
A1
330
2
100
AcDbEntity
  8
ANCON-HLD
100
AcDbLine
 10
7242.437221432459
 20
-1428.860690745886
 30
0.0
 11
7239.437221432459
 21
-1428.860690745886
 31
0.0
  0
LINE
  5
A2
330
2
100
AcDbEntity
  8
ANCON-HLD
100
AcDbLine
 10
7101.065106891621
 20
-1216.110222246605
 30
0.0
 11
7172.437221432459
 21
-1216.110222246605
 31
0.0
  0
LINE
  5
A3
330
2
100
AcDbEntity
  8
ANCON-HLD
100
AcDbLine
 10
7101.065106891621
 20
-1194.110222246605
 30
0.0
 11
7172.437221432459
 21
-1194.110222246605
 31
0.0
  0
LINE
  5
A4
330
2
100
AcDbEntity
  8
ANCON-HLD
100
AcDbLine
 10
7174.937221432459
 20
-1194.110222246605
 30
0.0
 11
7239.437221432459
 21
-1194.110222246605
 31
0.0
  0
LINE
  5
A5
330
2
100
AcDbEntity
  8
ANCON-HLD
100
AcDbLine
 10
7174.937221432459
 20
-1216.110222246605
 30
0.0
 11
7239.437221432459
 21
-1216.110222246605
 31
0.0
  0
ARC
  5
A6
330
2
100
AcDbEntity
  8
ANCON-HLD
100
AcDbCircle
 10
7207.43722143246
 20
-1197.610222246606
 30
0.0
 40
42.5
100
AcDbArc
 50
229.067275425833
 51
310.932724574167
  0
ARC
  5
A7
330
2
100
AcDbEntity
  8
ANCON-HLD
100
AcDbCircle
 10
7207.43722143246
 20
-1197.610222246606
 30
0.0
 40
45.0
100
AcDbArc
 50
229.067275425833
 51
310.932724574167
  0
ARC
  5
A8
330
2
100
AcDbEntity
  8
ANCON-HLD
100
AcDbCircle
 10
7207.43722143246
 20
-1212.610222246605
 30
0.0
 40
45.0
100
AcDbArc
 50
49.06727542583301
 51
130.932724574167
  0
ARC
  5
A9
330
2
100
AcDbEntity
  8
ANCON-HLD
100
AcDbCircle
 10
7207.43722143246
 20
-1212.610222246605
 30
0.0
 40
42.5
100
AcDbArc
 50
49.06727542583301
 51
130.932724574167
  0
LINE
  5
AA
330
2
100
AcDbEntity
  8
CENTRE
 48
0.5
100
AcDbLine
 10
7192.437221432459
 20
-1199.110222246605
 30
0.0
 11
7192.437221432459
 21
-1211.110222246605
 31
0.0
  0
LINE
  5
AB
330
2
100
AcDbEntity
  8
ANCON-HLD
100
AcDbLine
 10
7239.437221432459
 20
-1175.110222246605
 30
0.0
 11
7239.437221432459
 21
-1235.110222246605
 31
0.0
  0
LINE
  5
AC
330
2
100
AcDbEntity
  8
ANCON-HLD
100
AcDbLine
 10
7242.437221432459
 20
-1175.110222246605
 30
0.0
 11
7242.437221432459
 21
-1235.110222246605
 31
0.0
  0
LINE
  5
AD
330
2
100
AcDbEntity
  8
ANCON-HLD
100
AcDbLine
 10
7239.437221432459
 20
-1181.373940893309
 30
0.0
 11
7237.40597143246
 21
-1182.831343870354
 31
0.0
  0
LINE
  5
AE
330
2
100
AcDbEntity
  8
CENTRE
 48
0.125
100
AcDbLine
 10
7248.437221432459
 20
-1180.110222246605
 30
0.0
 11
7233.43722143246
 21
-1180.110222246605
 31
0.0
  0
ARC
  5
AF
330
2
100
AcDbEntity
  8
ANCON-HLD
100
AcDbCircle
 10
7226.437221432459
 20
-1190.701319946399
 30
0.0
 40
16.0
100
AcDbArc
 50
35.65908769615889
 51
49.06727542583301
  0
ARC
  5
B0
330
2
100
AcDbEntity
  8
ANCON-HLD
100
AcDbCircle
 10
7226.437221432459
 20
-1190.701319946399
 30
0.0
 40
13.5
100
AcDbArc
 50
35.65908769615889
 51
49.06727542583301
  0
LINE
  5
B1
330
2
100
AcDbEntity
  8
ANCON-HLD
100
AcDbLine
 10
7242.437221432459
 20
-1175.110222246605
 30
0.0
 11
7239.437221432459
 21
-1175.110222246605
 31
0.0
  0
ARC
  5
B2
330
2
100
AcDbEntity
  8
ANCON-HLD
100
AcDbCircle
 10
7226.437221432459
 20
-1219.519124546812
 30
0.0
 40
16.0
100
AcDbArc
 50
310.932724574167
 51
324.3409123038411
  0
LINE
  5
B3
330
2
100
AcDbEntity
  8
ANCON-HLD
100
AcDbLine
 10
7239.437221432459
 20
-1228.846503599902
 30
0.0
 11
7237.40597143246
 21
-1227.389100622857
 31
0.0
  0
LINE
  5
B4
330
2
100
AcDbEntity
  8
CENTRE
 48
0.125
100
AcDbLine
 10
7248.437221432459
 20
-1230.110222246606
 30
0.0
 11
7233.43722143246
 21
-1230.110222246606
 31
0.0
  0
ARC
  5
B5
330
2
100
AcDbEntity
  8
ANCON-HLD
100
AcDbCircle
 10
7226.437221432459
 20
-1219.519124546812
 30
0.0
 40
13.5
100
AcDbArc
 50
310.932724574167
 51
324.3409123038411
  0
LINE
  5
B6
330
2
100
AcDbEntity
  8
ANCON-HLD
100
AcDbLine
 10
7242.437221432459
 20
-1235.110222246605
 30
0.0
 11
7239.437221432459
 21
-1235.110222246605
 31
0.0
  0
LINE
  5
B7
330
2
100
AcDbEntity
  8
ANCON-HLD
100
AcDbLine
 10
7172.437221432459
 20
-1190.701319946399
 30
0.0
 11
7172.437221432459
 21
-1219.519124546812
 31
0.0
  0
LINE
  5
B8
330
2
100
AcDbEntity
  8
ANCON-HLD
100
AcDbLine
 10
7174.937221432459
 20
-1190.701319946399
 30
0.0
 11
7174.937221432459
 21
-1219.519124546812
 31
0.0
  0
ARC
  5
B9
330
2
100
AcDbEntity
  8
ANCON-HLD
100
AcDbCircle
 10
7188.43722143246
 20
-1190.701319946399
 30
0.0
 40
16.0
100
AcDbArc
 50
130.932724574167
 51
180.0
  0
ARC
  5
BA
330
2
100
AcDbEntity
  8
ANCON-HLD
100
AcDbCircle
 10
7188.43722143246
 20
-1190.701319946399
 30
0.0
 40
13.5
100
AcDbArc
 50
130.932724574167
 51
180.0
  0
ARC
  5
BB
330
2
100
AcDbEntity
  8
ANCON-HLD
100
AcDbCircle
 10
7188.43722143246
 20
-1219.519124546812
 30
0.0
 40
16.0
100
AcDbArc
 50
180.0
 51
229.067275425833
  0
ARC
  5
BC
330
2
100
AcDbEntity
  8
ANCON-HLD
100
AcDbCircle
 10
7188.43722143246
 20
-1219.519124546812
 30
0.0
 40
13.5
100
AcDbArc
 50
180.0
 51
229.067275425833
  0
LINE
  5
BD
330
2
100
AcDbEntity
  8
ANCON-HLD
100
AcDbLine
 10
7101.065106891617
 20
-1193.110222246605
 30
0.0
 11
7101.065106891621
 21
-1217.110222246605
 31
0.0
  0
LINE
  5
BE
330
2
100
AcDbEntity
  8
ANCON-HLD
100
AcDbLine
 10
7086.065106891618
 20
-1216.110222246605
 30
0.0
 11
7086.06510689162
 21
-1194.110222246605
 31
0.0
  0
ARC
  5
BF
330
2
100
AcDbEntity
  8
ANCON-HLD
100
AcDbCircle
 10
7087.06510689162
 20
-1194.110222246605
 30
0.0
 40
1.0
100
AcDbArc
 50
90.0
 51
180.0
  0
LINE
  5
C0
330
2
100
AcDbEntity
  8
ANCON-HLD
100
AcDbLine
 10
7101.065106891621
 20
-1193.110222246605
 30
0.0
 11
7087.06510689162
 21
-1193.110222246605
 31
0.0
  0
ARC
  5
C1
330
2
100
AcDbEntity
  8
ANCON-HLD
100
AcDbCircle
 10
7087.06510689162
 20
-1216.110222246605
 30
0.0
 40
1.0
100
AcDbArc
 50
180.0
 51
270.0
  0
LINE
  5
C2
330
2
100
AcDbEntity
  8
ANCON-HLD
100
AcDbLine
 10
7101.065106891621
 20
-1217.110222246605
 30
0.0
 11
7087.06510689162
 21
-1217.110222246605
 31
0.0
  0
CIRCLE
  5
C3
330
2
100
AcDbEntity
  8
ANCON-HLD
100
AcDbCircle
 10
7192.437221432459
 20
-1205.110222246605
 30
0.0
 40
2.5
  0
LINE
  5
C4
330
2
100
AcDbEntity
  8
CENTRE
 48
0.5
100
AcDbLine
 10
7078.993693273701
 20
-1205.110222246605
 30
0.0
 11
7251.062118344574
 21
-1205.110222246605
 31
0.0
  0
LINE
  5
C5
330
2
100
AcDbEntity
  8
ANCON-HLD
100
AcDbLine
 10
7101.065106891617
 20
-1396.360690745886
 30
0.0
 11
7087.065106891618
 21
-1396.360690745886
 31
0.0
  0
ARC
  5
C6
330
2
100
AcDbEntity
  8
ANCON-HLD
100
AcDbCircle
 10
7087.065106891618
 20
-1395.360690745886
 30
0.0
 40
1.0
100
AcDbArc
 50
180.0
 51
270.0
  0
LINE
  5
C7
330
2
100
AcDbEntity
  8
ANCON-HLD
100
AcDbLine
 10
7101.065106891617
 20
-1372.360690745886
 30
0.0
 11
7087.065106891618
 21
-1372.360690745886
 31
0.0
  0
ARC
  5
C8
330
2
100
AcDbEntity
  8
ANCON-HLD
100
AcDbCircle
 10
7087.065106891618
 20
-1373.360690745886
 30
0.0
 40
1.0
100
AcDbArc
 50
90.0
 51
180.0
  0
LINE
  5
C9
330
2
100
AcDbEntity
  8
ANCON-HLD
100
AcDbLine
 10
7086.065106891618
 20
-1395.360690745886
 30
0.0
 11
7086.065106891618
 21
-1373.360690745886
 31
0.0
  0
LINE
  5
CA
330
2
100
AcDbEntity
  8
ANCON-HLD
100
AcDbLine
 10
7101.065106891616
 20
-1372.360690745886
 30
0.0
 11
7101.065106891617
 21
-1396.360690745886
 31
0.0
  0
LINE
  5
CB
330
2
100
AcDbEntity
  8
ANCON-HLD
100
AcDbLine
 10
7490.168787724313
 20
-1167.610222246605
 30
0.0
 11
7464.668787724315
 21
-1167.610222246605
 31
0.0
  0
ELLIPSE
  5
CC
330
2
100
AcDbEntity
  8
ANCON-HLD
100
AcDbEllipse
 10
7499.668787724314
 20
-1167.610222246605
 30
0.0
 11
-9.499999999999545
 21
0.0
 31
0.0
210
0.0
220
0.0
230
1.0
 40
0.1437001622586096
 41
0.0
 42
3.141592653589793
  0
ELLIPSE
  5
CD
330
2
100
AcDbEntity
  8
ANCON-HLD
100
AcDbEllipse
 10
7499.668787724314
 20
-1242.610222246604
 30
0.0
 11
-9.499999999999545
 21
0.0
 31
0.0
210
0.0
220
0.0
230
-1.0
 40
0.1437001622586096
 41
0.0
 42
3.141592653589793
  0
LINE
  5
CE
330
2
100
AcDbEntity
  8
ANCON-HLD
100
AcDbLine
 10
7490.168787724313
 20
-1242.610222246604
 30
0.0
 11
7464.668787724315
 21
-1242.610222246604
 31
0.0
  0
LINE
  5
CF
330
2
100
AcDbEntity
  8
ANCON-HLD
100
AcDbLine
 10
7534.668787724315
 20
-1242.610222246604
 30
0.0
 11
7509.168787724313
 21
-1242.610222246604
 31
0.0
  0
LINE
  5
D0
330
2
100
AcDbEntity
  8
ANCON-CONCRETE
100
AcDbLine
 10
7262.43722143246
 20
-1143.641446185631
 30
0.0
 11
7262.43722143246
 21
-1266.578998307579
 31
0.0
  0
LINE
  5
D1
330
2
100
AcDbEntity
  8
ANCON-CONCRETE
100
AcDbLine
 10
7262.43722143246
 20
-1322.891914684912
 30
0.0
 11
7262.43722143246
 21
-1445.82946680686
 31
0.0
  0
LINE
  5
D2
330
2
100
AcDbEntity
  8
ANCON-CONCRETE
100
AcDbLine
 10
7242.437221432462
 20
-1143.641446185631
 30
0.0
 11
7242.437221432462
 21
-1266.578998307579
 31
0.0
  0
LINE
  5
D3
330
2
100
AcDbEntity
  8
ANCON-CONCRETE
100
AcDbLine
 10
7242.437221432462
 20
-1322.891914684912
 30
0.0
 11
7242.437221432459
 21
-1445.82946680686
 31
0.0
  0
LINE
  5
D4
330
2
100
AcDbEntity
  8
ANCON-TEXT
100
AcDbLine
 10
7294.363295444385
 20
-1469.917701757286
 30
0.0
 11
7294.363295444385
 21
-1523.015947891379
 31
0.0
  0
TEXT
  5
D8
330
2
100
AcDbEntity
  8
ANCON-TEXT
100
AcDbText
 10
7256.441510435981
 20
-1512.200390798281
 30
0.0
 40
5.0
  1
???
  7
ROMANS
 72
     4
 11
7262.870081864552
 21
-1509.700390798281
 31
0.0
100
AcDbText
  0
LINE
  5
D9
330
2
100
AcDbEntity
  8
ANCON-TEXT
100
AcDbLine
 10
7229.492711309585
 20
-1469.917701757286
 30
0.0
 11
7229.492711309585
 21
-1523.015947891379
 31
0.0
  0
TEXT
  5
DA
330
2
100
AcDbEntity
  8
ANCON-TEXT
100
AcDbText
 10
7235.012939007408
 20
-1480.178587419696
 30
0.0
 40
5.0
  1
SERVICEABILITY
  7
ROMANS
 72
     4
 11
7262.870081864552
 21
-1477.678587419697
 31
0.0
100
AcDbText
  0
TEXT
  5
DB
330
2
100
AcDbEntity
  8
ANCON-TEXT
100
AcDbText
 10
7238.108177102647
 20
-1491.121866358275
 30
0.0
 40
5.0
  1
LOAD ( kN )
  7
ROMANS
 72
     4
 11
7262.870081864552
 21
-1488.979009215418
 31
0.0
100
AcDbText
  0
LINE
  5
DC
330
2
100
AcDbEntity
  8
ANCON-TEXT
100
AcDbLine
 10
7168.984617752524
 20
-1469.917701757286
 30
0.0
 11
7168.984617752524
 21
-1523.015947891379
 31
0.0
  0
TEXT
  5
DD
330
2
100
AcDbEntity
  8
ANCON-TEXT
100
AcDbText
 10
7126.415097139688
 20
-1480.183417916828
 30
0.0
 40
5.0
  1
HLD REF:
  7
ROMANS
 72
     4
 11
7144.153192377785
 21
-1477.683417916828
 31
0.0
100
AcDbText
  0
TEXT
  5
DE
330
2
100
AcDbEntity
  8
ANCON-TEXT
100
AcDbText
 10
7128.346272340742
 20
-1512.200390798281
 30
0.0
 40
5.0
  1
HLD 18
  7
ROMANS
 72
     4
 11
7142.870081864552
 21
-1509.700390798281
 31
0.0
100
AcDbText
  0
LINE
  5
DF
330
2
100
AcDbEntity
  8
ANCON-TEXT
100
AcDbLine
 10
7118.984617752524
 20
-1469.917701757286
 30
0.0
 11
7118.984617752524
 21
-1523.015947891379
 31
0.0
  0
LINE
  5
E0
330
2
100
AcDbEntity
  8
ANCON-TEXT
100
AcDbLine
 10
7118.984617752524
 20
-1523.015947891379
 30
0.0
 11
7294.363295444385
 21
-1523.015947891379
 31
0.0
  0
LINE
  5
E1
330
2
100
AcDbEntity
  8
ANCON-TEXT
100
AcDbLine
 10
7118.984617752524
 20
-1495.988462816332
 30
0.0
 11
7294.363295444385
 21
-1495.988462816332
 31
0.0
  0
LINE
  5
E2
330
2
100
AcDbEntity
  8
ANCON-TEXT
100
AcDbLine
 10
7118.984617752524
 20
-1469.917701757286
 30
0.0
 11
7294.363295444385
 21
-1469.917701757286
 31
0.0
  0
TEXT
  5
E3
330
2
100
AcDbEntity
  8
ANCON-TEXT
100
AcDbText
 10
7174.088286117411
 20
-1480.183417916828
 30
0.0
 40
5.0
  1
DESIGN JOINT
  7
ROMANS
 72
     4
 11
7200.15971468884
 21
-1477.683417916828
 31
0.0
100
AcDbText
  0
TEXT
  5
E4
330
2
100
AcDbEntity
  8
ANCON-TEXT
100
AcDbText
 10
7190.489129483601
 20
-1512.200390798281
 30
0.0
 40
5.0
  1
?? MM
  7
ROMANS
 72
     4
 11
7202.870081864552
 21
-1509.700390798281
 31
0.0
100
AcDbText
  0
TEXT
  5
E5
330
2
100
AcDbEntity
  8
ANCON-TEXT
100
AcDbText
 10
7189.564476593601
 20
-1491.081041304447
 30
0.0
 40
5.0
  1
WIDTH
  7
ROMANS
 72
     4
 11
7200.15971468884
 21
-1488.581041304447
 31
0.0
100
AcDbText
  0
LINE
  5
E6
330
2
100
AcDbEntity
  8
ANCON-TEXT
100
AcDbLine
 10
7633.34679080218
 20
-1501.801427531161
 30
0.0
 11
7633.34679080218
 21
-1554.835120116711
 31
0.0
  0
LINE
  5
E7
330
2
100
AcDbEntity
  8
ANCON-TEXT
100
AcDbLine
 10
7498.449691618302
 20
-1472.434913864067
 30
0.0
 11
7498.449691618302
 21
-1484.352889156068
 31
0.0
  0
LINE
  5
E8
330
2
100
AcDbEntity
  8
ANCON-TEXT
100
AcDbLine
 10
7430.859840695539
 20
-1472.434913864067
 30
0.0
 11
7430.859840695539
 21
-1484.352889156068
 31
0.0
  0
LINE
  5
E9
330
2
100
AcDbEntity
  8
ANCON-TEXT
100
AcDbLine
 10
7430.859840695539
 20
-1501.801427531161
 30
0.0
 11
7430.859840695539
 21
-1554.835120116711
 31
0.0
  0
TEXT
  5
EA
330
2
100
AcDbEntity
  8
ANCON-TEXT
100
AcDbText
 10
7436.129302180674
 20
-1551.132069685283
 30
0.0
 40
5.0
  1
LOAD OF ??? kN
  7
ROMANS
 72
     4
 11
7468.748349799722
 21
-1548.632069685283
 31
0.0
100
AcDbText
  0
LINE
  5
EB
330
2
100
AcDbEntity
  8
ANCON-TEXT
100
AcDbLine
 10
7430.859840695539
 20
-1472.434913864067
 30
0.0
 11
7498.449691618302
 21
-1472.434913864067
 31
0.0
  0
LINE
  5
EC
330
2
100
AcDbEntity
  8
ANCON-TEXT
100
AcDbLine
 10
7430.859840695539
 20
-1484.352889156068
 30
0.0
 11
7498.449691618302
 21
-1484.352889156068
 31
0.0
  0
TEXT
  5
ED
330
2
100
AcDbEntity
  8
ANCON-TEXT
100
AcDbText
 10
7435.711093226074
 20
-1481.07202397991
 30
0.0
 40
5.0
  1
ANCON HLD 18
  7
ROMANS
 72
     4
 11
7464.877759892741
 21
-1478.57202397991
 31
0.0
100
AcDbText
  0
TEXT
  5
EE
330
2
100
AcDbEntity
  8
ANCON-TEXT
100
AcDbText
 10
7303.431105014253
 20
-1511.006478444407
 30
0.0
 40
5.0
  1
SPECIFICATION BY DESCRIPTION
  7
ROMANS
 72
     4
 11
7363.073962157111
 21
-1508.506478444407
 31
0.0
100
AcDbText
  0
TEXT
  5
EF
330
2
100
AcDbEntity
  8
ANCON-TEXT
100
AcDbText
 10
7303.287468404626
 20
-1481.07202397991
 30
0.0
 40
5.0
  1
SPECIFICATION BY PRODUCT
  7
ROMANS
 72
     4
 11
7356.739849357007
 21
-1478.57202397991
 31
0.0
100
AcDbText
  0
TEXT
  5
F0
330
2
100
AcDbEntity
  8
ANCON-TEXT
100
AcDbText
 10
7435.151573900379
 20
-1511.042227070931
 30
0.0
 40
5.0
  1
TWO PART STAINLESS STEEL SHEAR CONNECTOR
  7
ROMANS
 72
     4
 11
7527.770621519427
 21
-1508.542227070931
 31
0.0
100
AcDbText
  0
TEXT
  5
F1
330
2
100
AcDbEntity
  8
ANCON-TEXT
100
AcDbText
 10
7434.430389494322
 20
-1521.146939396722
 30
0.0
 40
5.0
  1
COMPRISING SLEEVE AND DOWEL COMPONENT
  7
ROMANS
 72
     4
 11
7522.406579970513
 21
-1518.646939396722
 31
0.0
100
AcDbText
  0
TEXT
  5
F2
330
2
100
AcDbEntity
  8
ANCON-TEXT
100
AcDbText
 10
7434.943521424331
 20
-1541.09714452032
 30
0.0
 40
5.0
  1
AND CAPABLE OF TRANSFERRING A SERVICEABILITY
  7
ROMANS
 72
     4
 11
7532.324473805283
 21
-1538.59714452032
 31
0.0
100
AcDbText
  0
LINE
  5
F3
330
2
100
AcDbEntity
  8
ANCON-TEXT
100
AcDbLine
 10
7430.859840695539
 20
-1554.835120116711
 30
0.0
 11
7633.34679080218
 21
-1554.835120116711
 31
0.0
  0
LINE
  5
F4
330
2
100
AcDbEntity
  8
ANCON-TEXT
100
AcDbLine
 10
7430.859840695539
 20
-1501.801427531161
 30
0.0
 11
7633.34679080218
 21
-1501.801427531161
 31
0.0
  0
TEXT
  5
F5
330
2
100
AcDbEntity
  8
ANCON-TEXT
100
AcDbText
 10
7434.48908625438
 20
-1531.048087106391
 30
0.0
 40
5.0
  1
SUITABLE FOR A DESIGN JOINT WIDTH OF ?? MM
  7
ROMANS
 72
     4
 11
7529.370038635332
 21
-1528.548087106391
 31
0.0
100
AcDbText
  0
ENDSEC
  0
SECTION
  2
OBJECTS
  0
DICTIONARY
  5
C
330
0
100
AcDbDictionary
281
     1
  3
ACAD_COLOR
350
33
  3
ACAD_GROUP
350
2F
  3
ACAD_LAYOUT
350
10
  3
ACAD_MATERIAL
350
32
  3
ACAD_MLINESTYLE
350
30
  3
ACAD_PLOTSETTINGS
350
31
  3
ACAD_PLOTSTYLENAME
350
B
  3
ACAD_TABLESTYLE
350
34
  3
ACAD_VISUALSTYLE
350
28
  3
ACDBHEADERROUNDTRIPXREC
350
103
  3
AcDbVariableDictionary
350
F8
  0
DICTIONARY
  5
25
330
23
100
AcDbDictionary
280
     1
281
     1
  3
ACAD_XREC_ROUNDTRIP
360
26
  0
DICTIONARY
  5
19
330
18
100
AcDbDictionary
280
     1
281
     1
  3
ACAD_LAYERSTATES
360
1A
  0
DICTIONARY
  5
8
330
7
100
AcDbDictionary
280
     1
281
     1
  3
ADSK_XREC_LAYER_RECONCILED
360
9
  0
DICTIONARY
  5
36
330
35
100
AcDbDictionary
280
     1
281
     1
  3
ADSK_XREC_LAYER_RECONCILED
360
37
  0
DICTIONARY
  5
D6
330
D5
100
AcDbDictionary
280
     1
281
     1
  3
ADSK_XREC_LAYER_RECONCILED
360
D7
  0
DICTIONARY
  5
4C
330
4B
100
AcDbDictionary
280
     1
281
     1
  3
ADSK_XREC_LAYER_RECONCILED
360
4D
  0
DICTIONARY
  5
3
330
2
100
AcDbDictionary
280
     1
281
     1
  3
ACAD_LAYOUTSELFREF
360
4
  3
ACAD_SORTENTS
360
F6
  0
DICTIONARY
  5
13
330
12
100
AcDbDictionary
280
     1
281
     1
  3
ACAD_LAYOUTSELFREF
360
14
  0
DICTIONARY
  5
33
102
{ACAD_REACTORS
330
C
102
}
330
C
100
AcDbDictionary
281
     1
  0
DICTIONARY
  5
2F
102
{ACAD_REACTORS
330
C
102
}
330
C
100
AcDbDictionary
281
     1
  0
DICTIONARY
  5
10
102
{ACAD_REACTORS
330
C
102
}
330
C
100
AcDbDictionary
281
     1
  3
Layout1
350
17
  3
Model
350
F
  0
DICTIONARY
  5
32
102
{ACAD_REACTORS
330
C
102
}
330
C
100
AcDbDictionary
281
     1
  0
DICTIONARY
  5
30
102
{ACAD_REACTORS
330
C
102
}
330
C
100
AcDbDictionary
281
     1
  3
STANDARD
350
38
  0
DICTIONARY
  5
31
102
{ACAD_REACTORS
330
C
102
}
330
C
100
AcDbDictionary
281
     1
  0
ACDBDICTIONARYWDFLT
  5
B
102
{ACAD_REACTORS
330
C
102
}
330
C
100
AcDbDictionary
281
     1
  3
Normal
350
A
100
AcDbDictionaryWithDefault
340
A
  0
DICTIONARY
  5
34
102
{ACAD_REACTORS
330
C
102
}
330
C
100
AcDbDictionary
281
     1
  3
Standard
350
39
  0
DICTIONARY
  5
28
102
{ACAD_REACTORS
330
C
102
}
330
C
100
AcDbDictionary
281
     1
  3
2dWireframe
350
27
  0
DICTIONARY
  5
103
102
{ACAD_REACTORS
330
C
102
}
330
C
100
AcDbDictionary
281
     1
  0
DICTIONARY
  5
F8
102
{ACAD_REACTORS
330
C
102
}
330
C
100
AcDbDictionary
281
     1
  3
CTABLESTYLE
350
F9
  3
DIMASSOC
350
100
  3
HIDETEXT
350
FF
  3
PROJECTNAME
350
101
  0
XRECORD
  5
26
102
{ACAD_REACTORS
330
25
102
}
330
25
100
AcDbXrecord
280
     1
102
VTR_0.000_0.000_1.000_1.000_VISUALSTYLE
340
27
102
VTR_0.000_0.000_1.000_1.000_GRIDDISPLAY
 70
     3
102
VTR_0.000_0.000_1.000_1.000_GRIDMAJOR
 70
     5
102
VTR_0.000_0.000_1.000_1.000_DEFAULTLIGHTING
280
     1
102
VTR_0.000_0.000_1.000_1.000_DEFAULTLIGHTINGTYPE
 70
     1
102
VTR_0.000_0.000_1.000_1.000_BRIGHTNESS
141
0.0
102
VTR_0.000_0.000_1.000_1.000_CONTRAST
142
0.0
  0
DICTIONARY
  5
1A
102
{ACAD_REACTORS
330
19
102
}
330
19
100
AcDbDictionary
281
     1
  0
XRECORD
  5
9
102
{ACAD_REACTORS
330
8
102
}
330
8
100
AcDbXrecord
280
     1
290
     1
  0
XRECORD
  5
37
102
{ACAD_REACTORS
330
36
102
}
330
36
100
AcDbXrecord
280
     1
290
     1
  0
XRECORD
  5
D7
102
{ACAD_REACTORS
330
D6
102
}
330
D6
100
AcDbXrecord
280
     1
290
     1
  0
XRECORD
  5
4D
102
{ACAD_REACTORS
330
4C
102
}
330
4C
100
AcDbXrecord
280
     1
290
     1
  0
XRECORD
  5
4
102
{ACAD_REACTORS
330
3
102
}
330
3
100
AcDbXrecord
280
     1
340
2
  0
SORTENTSTABLE
  5
F6
102
{ACAD_REACTORS
330
3
102
}
330
3
100
AcDbSortentsTable
330
2
  0
XRECORD
  5
14
102
{ACAD_REACTORS
330
13
102
}
330
13
100
AcDbXrecord
280
     1
340
12
  0
LAYOUT
  5
17
102
{ACAD_XDICTIONARY
360
106
102
}
102
{ACAD_REACTORS
330
10
102
}
330
10
100
AcDbPlotSettings
  1

  2
None
  4

  6

 40
0.0
 41
0.0
 42
0.0
 43
0.0
 44
0.0
 45
0.0
 46
0.0
 47
0.0
 48
0.0
 49
0.0
140
0.0
141
0.0
142
1.0
143
1.0
 70
   688
 72
     0
 73
     0
 74
     5
  7
Std pen settings.ctb
 75
    16
147
1.0
148
0.0
149
0.0
100
AcDbLayout
  1
Layout1
 70
     1
 71
     1
 10
0.0
 20
0.0
 11
420.0
 21
297.0
 12
0.0
 22
0.0
 32
0.0
 14
1.000000000000000E+20
 24
1.000000000000000E+20
 34
1.000000000000000E+20
 15
-1.000000000000000E+20
 25
-1.000000000000000E+20
 35
-1.000000000000000E+20
146
0.0
 13
0.0
 23
0.0
 33
0.0
 16
1.0
 26
0.0
 36
0.0
 17
0.0
 27
1.0
 37
0.0
 76
     0
330
12
  0
LAYOUT
  5
F
102
{ACAD_XDICTIONARY
360
104
102
}
102
{ACAD_REACTORS
330
10
102
}
330
10
100
AcDbPlotSettings
  1

  2
none_device
  4
Letter_(8.50_x_11.00_Inches)
  6

 40
6.349999904632568
 41
6.349999904632568
 42
6.350006103515625
 43
6.350006103515625
 44
215.8999938964844
 45
279.3999938964844
 46
0.0
 47
0.0
 48
0.0
 49
0.0
140
0.0
141
0.0
142
1.0
143
190.4825914125939
 70
 11952
 72
     0
 73
     1
 74
     0
  7
Std pen settings.ctb
 75
     0
147
0.005249823580119
148
-187605.733827711
149
104251.2692448299
100
AcDbLayout
  1
Model
 70
     1
 71
     0
 10
0.0
 20
0.0
 11
12.0
 21
9.0
 12
0.0
 22
0.0
 32
0.0
 14
0.0
 24
0.0
 34
0.0
 15
0.0
 25
0.0
 35
0.0
146
0.0
 13
0.0
 23
0.0
 33
0.0
 16
1.0
 26
0.0
 36
0.0
 17
0.0
 27
1.0
 37
0.0
 76
     0
330
2
1001
ACAD_PSEXT
1000
None
1000
None
1000
Not applicable
1000
The layout will not be plotted unless a new plotter configuration name is selected.
1070
     0
  0
MLINESTYLE
  5
38
102
{ACAD_REACTORS
330
30
102
}
330
30
100
AcDbMlineStyle
  2
STANDARD
 70
     0
  3

 62
   256
 51
90.0
 52
90.0
 71
     2
 49
0.5
 62
   256
  6
BYLAYER
 49
-0.5
 62
   256
  6
BYLAYER
  0
ACDBPLACEHOLDER
  5
A
102
{ACAD_REACTORS
330
B
102
}
330
B
  0
TABLESTYLE
  5
39
102
{ACAD_XDICTIONARY
360
3A
102
}
102
{ACAD_REACTORS
330
34
102
}
330
34
100
AcDbTableStyle
  3
Standard
 70
     0
 71
     0
 40
0.06
 41
0.06
280
     0
281
     0
  7
STANDARD
140
0.18
170
     2
 62
     0
 63
     7
283
     0
274
    -2
284
     1
 64
     0
275
    -2
285
     1
 65
     0
276
    -2
286
     1
 66
     0
277
    -2
287
     1
 67
     0
278
    -2
288
     1
 68
     0
279
    -2
289
     1
 69
     0
  7
STANDARD
140
0.25
170
     5
 62
     0
 63
     7
283
     0
274
    -2
284
     1
 64
     0
275
    -2
285
     1
 65
     0
276
    -2
286
     1
 66
     0
277
    -2
287
     1
 67
     0
278
    -2
288
     1
 68
     0
279
    -2
289
     1
 69
     0
  7
STANDARD
140
0.18
170
     5
 62
     0
 63
     7
283
     0
274
    -2
284
     1
 64
     0
275
    -2
285
     1
 65
     0
276
    -2
286
     1
 66
     0
277
    -2
287
     1
 67
     0
278
    -2
288
     1
 68
     0
279
    -2
289
     1
 69
     0
  0
ACAD_PROXY_OBJECT
  5
27
102
{ACAD_REACTORS
330
28
102
}
330
28
100
AcDbProxyObject
 90
      499
 91
      512
 95
   983063
 70
     0
 93
      444
310
430C9915DA5C99599C985B59401049028333333333333E3BF0000000000000FB0107901411070040501600405405064090741402480A0340
 94
        0
1001
ACAD
1000
AcDbSavedByObjectVersion
1070
     0
1000
AcRTDxfName
1000
VISUALSTYLE
  0
DICTIONARYVAR
  5
F9
102
{ACAD_REACTORS
330
F8
102
}
330
F8
100
DictionaryVariables
280
     0
  1
STANDARD
  0
DICTIONARYVAR
  5
100
102
{ACAD_REACTORS
330
F8
102
}
330
F8
100
DictionaryVariables
280
     0
  1
1
  0
DICTIONARYVAR
  5
FF
102
{ACAD_REACTORS
330
F8
102
}
330
F8
100
DictionaryVariables
280
     0
  1
1
  0
DICTIONARYVAR
  5
101
102
{ACAD_REACTORS
330
F8
102
}
330
F8
100
DictionaryVariables
280
     0
  1

  0
DICTIONARY
  5
106
330
17
100
AcDbDictionary
280
     1
281
     1
  3
ACAD_XREC_ROUNDTRIP
360
107
  0
DICTIONARY
  5
104
330
F
100
AcDbDictionary
280
     1
281
     1
  3
ACAD_XREC_ROUNDTRIP
360
105
  0
DICTIONARY
  5
3A
330
39
100
AcDbDictionary
280
     1
281
     1
  3
ACAD_ROUNDTRIP_2008_TABLESTYLE_CELLSTYLEMAP
360
3B
  3
ACAD_XREC_ROUNDTRIP
360
3C
  0
XRECORD
  5
107
102
{ACAD_REACTORS
330
106
102
}
330
106
100
AcDbXrecord
280
     1
102
SHADEPLOT
 70
     0
102
SHADEPLOTRESLEVEL
 70
     2
102
SHADEPLOTCUSTOMDPI
 70
   300
  0
XRECORD
  5
105
102
{ACAD_REACTORS
330
104
102
}
330
104
100
AcDbXrecord
280
     1
102
SHADEPLOT
 70
     0
102
SHADEPLOTRESLEVEL
 70
     2
102
SHADEPLOTCUSTOMDPI
 70
   300
  0
ACAD_PROXY_OBJECT
  5
3B
102
{ACAD_REACTORS
330
3A
102
}
330
3A
100
AcDbProxyObject
 90
      499
 91
      518
 95
   983063
 70
     0
 93
     4020
310
40D054060020000020000003200101A412A5058000000C100000000000000340FE419019018000000C1003FBFFFFFE02B5E8DC0F42A9CFD029018000000C1003FBFFFFFE02B5E8DC0F42A9CFD049018000000C1003FBFFFFFE02B5E8DC0F42A9CFD089018000000C1003FBFFFFFE02B5E8DC0F42A9CFD109018000000C1003
310
FBFFFFFE02B5E8DC0F42A9CFD209018000000C1003FBFFFFFE02B5E8DC0F42A9CFD01405075F5449544C450041501A8000000C800406904A9416000000304000AD7A3703D0AC73F90640640600000030400FEFFFFFF80AD7A3703D0AA73F40A40600000030400FEFFFFFF80AD7A3703D0AA73F41240600000030400FEFFFFF
310
F80AD7A3703D0AA73F42240600000030400FEFFFFFF80AD7A3703D0AA73F44240600000030400FEFFFFFF80AD7A3703D0AA73F48240600000030400FEFFFFFF80AD7A3703D0AA73F409014217D2115051115480105406A0000003200101A412A5028000000C10002B5E8DC0F42B1CFE419019018000000C1003FBFFFFFE02B
310
5E8DC0F42A9CFD029018000000C1003FBFFFFFE02B5E8DC0F42A9CFD049018000000C1003FBFFFFFE02B5E8DC0F42A9CFD089018000000C1003FBFFFFFE02B5E8DC0F42A9CFD109018000000C1003FBFFFFFE02B5E8DC0F42A9CFD209018000000C1003FBFFFFFE02B5E8DC0F42A9CFD03409065F44415441008
340
1C
340
0
340
0
340
0
340
0
340
0
340
0
340
1C
340
0
340
0
340
0
340
0
340
0
340
0
340
1C
340
0
340
0
340
0
340
0
340
0
340
0
 94
        0
1001
ACAD
1000
AcRTDxfName
1000
CELLSTYLEMAP
  0
XRECORD
  5
3C
102
{ACAD_REACTORS
330
3A
102
}
330
3A
100
AcDbXrecord
280
     1
102
ACAD_ROUNDTRIP_PRE2007_TABLESTYLE
 90
        4
 91
        0
  1

 92
        4
 93
        0
  2

 94
        4
 95
        0
  3

  0
ENDSEC
  0
EOF
