  0
SECTION
  2
HEADER
  9
$ACADVER
  1
AC1015
  9
$ACADMAINTVER
 70
    20
  9
$DWGCODEPAGE
  3
ANSI_1252
  9
$INSBASE
 10
8470.449147775202
 20
-2091.677201739525
 30
0.0
  9
$EXTMIN
 10
8220.821148249733
 20
-2610.259952582286
 30
0.0
  9
$EXTMAX
 10
8940.658339775239
 20
-2002.614701739525
 30
0.0
  9
$LIMMIN
 10
0.0
 20
0.0
  9
$LIMMAX
 10
420.0
 20
297.0
  9
$ORTHOMODE
 70
     1
  9
$REGENMODE
 70
     1
  9
$FILLMODE
 70
     1
  9
$QTEXTMODE
 70
     0
  9
$MIRRTEXT
 70
     1
  9
$LTSCALE
 40
0.25
  9
$ATTMODE
 70
     1
  9
$TEXTSIZE
 40
5.0
  9
$TRACEWID
 40
10.0
  9
$TEXTSTYLE
  7
ROMANS
  9
$CLAYER
  8
ANCON-CONCRETE
  9
$CELTYPE
  6
BYLAYER
  9
$CECOLOR
 62
   256
  9
$CELTSCALE
 40
1.0
  9
$DISPSILH
 70
     0
  9
$DIMSCALE
 40
0.0
  9
$DIMASZ
 40
4.0
  9
$DIMEXO
 40
3.0
  9
$DIMDLI
 40
10.0
  9
$DIMRND
 40
0.0
  9
$DIMDLE
 40
1.25
  9
$DIMEXE
 40
3.0
  9
$DIMTP
 40
0.0
  9
$DIMTM
 40
0.0
  9
$DIMTXT
 40
3.0
  9
$DIMCEN
 40
-3.0
  9
$DIMTSZ
 40
0.0
  9
$DIMTOL
 70
     0
  9
$DIMLIM
 70
     0
  9
$DIMTIH
 70
     0
  9
$DIMTOH
 70
     0
  9
$DIMSE1
 70
     0
  9
$DIMSE2
 70
     0
  9
$DIMTAD
 70
     1
  9
$DIMZIN
 70
    12
  9
$DIMBLK
  1

  9
$DIMASO
 70
     1
  9
$DIMSHO
 70
     0
  9
$DIMPOST
  1

  9
$DIMAPOST
  1

  9
$DIMALT
 70
     0
  9
$DIMALTD
 70
     2
  9
$DIMALTF
 40
0.039
  9
$DIMLFAC
 40
1.0
  9
$DIMTOFL
 70
     0
  9
$DIMTVP
 40
1.5
  9
$DIMTIX
 70
     0
  9
$DIMSOXD
 70
     0
  9
$DIMSAH
 70
     0
  9
$DIMBLK1
  1

  9
$DIMBLK2
  1

  9
$DIMSTYLE
  2
1-2
  9
$DIMCLRD
 70
     0
  9
$DIMCLRE
 70
     0
  9
$DIMCLRT
 70
     0
  9
$DIMTFAC
 40
0.75
  9
$DIMGAP
 40
1.5
  9
$DIMJUST
 70
     0
  9
$DIMSD1
 70
     0
  9
$DIMSD2
 70
     0
  9
$DIMTOLJ
 70
     1
  9
$DIMTZIN
 70
    12
  9
$DIMALTZ
 70
    12
  9
$DIMALTTZ
 70
    12
  9
$DIMUPT
 70
     0
  9
$DIMDEC
 70
     2
  9
$DIMTDEC
 70
     2
  9
$DIMALTU
 70
     2
  9
$DIMALTTD
 70
     2
  9
$DIMTXSTY
  7
ROMANS
  9
$DIMAUNIT
 70
     0
  9
$DIMADEC
 70
     0
  9
$DIMALTRND
 40
0.0
  9
$DIMAZIN
 70
     0
  9
$DIMDSEP
 70
    46
  9
$DIMATFIT
 70
     3
  9
$DIMFRAC
 70
     0
  9
$DIMLDRBLK
  1

  9
$DIMLUNIT
 70
     2
  9
$DIMLWD
 70
    -2
  9
$DIMLWE
 70
    -2
  9
$DIMTMOVE
 70
     2
  9
$LUNITS
 70
     2
  9
$LUPREC
 70
     2
  9
$SKETCHINC
 40
1.0
  9
$FILLETRAD
 40
0.0
  9
$AUNITS
 70
     0
  9
$AUPREC
 70
     4
  9
$MENU
  1
acad
  9
$ELEVATION
 40
0.0
  9
$PELEVATION
 40
0.0
  9
$THICKNESS
 40
0.0
  9
$LIMCHECK
 70
     0
  9
$CHAMFERA
 40
0.0
  9
$CHAMFERB
 40
0.0
  9
$CHAMFERC
 40
0.0
  9
$CHAMFERD
 40
0.0
  9
$SKPOLY
 70
     0
  9
$TDCREATE
 40
2449527.571155093
  9
$TDUCREATE
 40
2449527.529488426
  9
$TDUPDATE
 40
2455062.515088252
  9
$TDUUPDATE
 40
2455062.473421586
  9
$TDINDWG
 40
0.8346622222
  9
$TDUSRTIMER
 40
0.8346622222
  9
$USRTIMER
 70
     1
  9
$ANGBASE
 50
0.0
  9
$ANGDIR
 70
     0
  9
$PDMODE
 70
     0
  9
$PDSIZE
 40
0.0
  9
$PLINEWID
 40
0.0
  9
$SPLFRAME
 70
     0
  9
$SPLINETYPE
 70
     6
  9
$SPLINESEGS
 70
     8
  9
$HANDSEED
  5
F6
  9
$SURFTAB1
 70
    18
  9
$SURFTAB2
 70
    18
  9
$SURFTYPE
 70
     6
  9
$SURFU
 70
    18
  9
$SURFV
 70
    18
  9
$UCSBASE
  2

  9
$UCSNAME
  2

  9
$UCSORG
 10
0.0
 20
0.0
 30
0.0
  9
$UCSXDIR
 10
1.0
 20
0.0
 30
0.0
  9
$UCSYDIR
 10
0.0
 20
1.0
 30
0.0
  9
$UCSORTHOREF
  2

  9
$UCSORTHOVIEW
 70
     0
  9
$UCSORGTOP
 10
0.0
 20
0.0
 30
0.0
  9
$UCSORGBOTTOM
 10
0.0
 20
0.0
 30
0.0
  9
$UCSORGLEFT
 10
0.0
 20
0.0
 30
0.0
  9
$UCSORGRIGHT
 10
0.0
 20
0.0
 30
0.0
  9
$UCSORGFRONT
 10
0.0
 20
0.0
 30
0.0
  9
$UCSORGBACK
 10
0.0
 20
0.0
 30
0.0
  9
$PUCSBASE
  2

  9
$PUCSNAME
  2

  9
$PUCSORG
 10
0.0
 20
0.0
 30
0.0
  9
$PUCSXDIR
 10
1.0
 20
0.0
 30
0.0
  9
$PUCSYDIR
 10
0.0
 20
1.0
 30
0.0
  9
$PUCSORTHOREF
  2

  9
$PUCSORTHOVIEW
 70
     0
  9
$PUCSORGTOP
 10
0.0
 20
0.0
 30
0.0
  9
$PUCSORGBOTTOM
 10
0.0
 20
0.0
 30
0.0
  9
$PUCSORGLEFT
 10
0.0
 20
0.0
 30
0.0
  9
$PUCSORGRIGHT
 10
0.0
 20
0.0
 30
0.0
  9
$PUCSORGFRONT
 10
0.0
 20
0.0
 30
0.0
  9
$PUCSORGBACK
 10
0.0
 20
0.0
 30
0.0
  9
$USERI1
 70
     0
  9
$USERI2
 70
     0
  9
$USERI3
 70
     0
  9
$USERI4
 70
     0
  9
$USERI5
 70
     0
  9
$USERR1
 40
0.0
  9
$USERR2
 40
0.0
  9
$USERR3
 40
0.0
  9
$USERR4
 40
0.0
  9
$USERR5
 40
0.0
  9
$WORLDVIEW
 70
     1
  9
$SHADEDGE
 70
     3
  9
$SHADEDIF
 70
    70
  9
$TILEMODE
 70
     1
  9
$MAXACTVP
 70
    16
  9
$PINSBASE
 10
0.0
 20
0.0
 30
0.0
  9
$PLIMCHECK
 70
     0
  9
$PEXTMIN
 10
1.000000000000000E+20
 20
1.000000000000000E+20
 30
1.000000000000000E+20
  9
$PEXTMAX
 10
-1.000000000000000E+20
 20
-1.000000000000000E+20
 30
-1.000000000000000E+20
  9
$PLIMMIN
 10
0.0
 20
0.0
  9
$PLIMMAX
 10
420.0
 20
297.0
  9
$UNITMODE
 70
     0
  9
$VISRETAIN
 70
     0
  9
$PLINEGEN
 70
     0
  9
$PSLTSCALE
 70
     1
  9
$TREEDEPTH
 70
  3020
  9
$CMLSTYLE
  2
STANDARD
  9
$CMLJUST
 70
     0
  9
$CMLSCALE
 40
1.0
  9
$PROXYGRAPHICS
 70
     1
  9
$MEASUREMENT
 70
     0
  9
$CELWEIGHT
370
    -1
  9
$ENDCAPS
280
     0
  9
$JOINSTYLE
280
     0
  9
$LWDISPLAY
290
     0
  9
$INSUNITS
 70
     0
  9
$HYPERLINKBASE
  1

  9
$STYLESHEET
  1

  9
$XEDIT
290
     1
  9
$CEPSNTYPE
380
     0
  9
$PSTYLEMODE
290
     1
  9
$FINGERPRINTGUID
  2
{8787F8C8-54F6-488C-A4B6-D1F8FBA07D76}
  9
$VERSIONGUID
  2
{3D0EA16E-D295-42DB-BB14-F5DEA7F09795}
  9
$EXTNAMES
290
     1
  9
$PSVPSCALE
 40
0.0
  9
$OLESTARTUP
290
     0
  0
ENDSEC
  0
SECTION
  2
CLASSES
  0
CLASS
  1
DICTIONARYVAR
  2
AcDbDictionaryVar
  3
ObjectDBX Classes
 90
        0
280
     0
281
     0
  0
CLASS
  1
LWPOLYLINE
  2
AcDbPolyline
  3
ObjectDBX Classes
 90
        0
280
     0
281
     1
  0
CLASS
  1
XRECORD
  2
AcDbXrecord
  3
ObjectDBX Classes
 90
        0
280
     0
281
     0
  0
CLASS
  1
ACDBDICTIONARYWDFLT
  2
AcDbDictionaryWithDefault
  3
ObjectDBX Classes
 90
        0
280
     0
281
     0
  0
CLASS
  1
ACDBPLACEHOLDER
  2
AcDbPlaceHolder
  3
ObjectDBX Classes
 90
        0
280
     0
281
     0
  0
CLASS
  1
LAYOUT
  2
AcDbLayout
  3
ObjectDBX Classes
 90
        0
280
     0
281
     0
  0
CLASS
  1
LONG_TRANSACTION
  2
AcDbLongTransaction
  3
ObjectDBX Classes
 90
    32768
280
     0
281
     0
  0
CLASS
  1
LWPOLYLINE
  2
AcDbPolyline
  3
ObjectDBX Classes
 90
        0
280
     0
281
     1
  0
CLASS
  1
HATCH
  2
AcDbHatch
  3
ObjectDBX Classes
 90
    32768
280
     0
281
     1
  0
CLASS
  1
XRECORD
  2
AcDbXrecord
  3
ObjectDBX Classes
 90
        0
280
     0
281
     0
  0
CLASS
  1
TABLESTYLE
  2
AcDbTableStyle
  3
ObjectDBX Classes
 90
     2047
280
     0
281
     0
  0
CLASS
  1
MATERIAL
  2
AcDbMaterial
  3
ObjectDBX Classes
 90
    32768
280
     0
281
     0
  0
CLASS
  1
VISUALSTYLE
  2
AcDbVisualStyle
  3
ObjectDBX Classes
 90
     4095
280
     1
281
     0
  0
CLASS
  1
SCALE
  2
AcDbScale
  3
ObjectDBX Classes
 90
    33921
280
     1
281
     0
  0
CLASS
  1
MLEADERSTYLE
  2
AcDbMLeaderStyle
  3
ACDB_MLEADERSTYLE_CLASS
 90
    36863
280
     1
281
     0
  0
CLASS
  1
PLOTSETTINGS
  2
AcDbPlotSettings
  3
ObjectDBX Classes
 90
    32768
280
     0
281
     0
  0
CLASS
  1
DIMASSOC
  2
AcDbDimAssoc
  3
"AcDbDimAssoc|Product Desc:     AcDim ARX App For Dimension|Company:          Autodesk, Inc.|WEB Address:      www.autodesk.com"
 90
    32768
280
     0
281
     0
  0
CLASS
  1
SORTENTSTABLE
  2
AcDbSortentsTable
  3
ObjectDBX Classes
 90
        0
280
     0
281
     0
  0
CLASS
  1
CELLSTYLEMAP
  2
AcDbCellStyleMap
  3
ObjectDBX Classes
 90
     1152
280
     1
281
     0
  0
CLASS
  1
AEC_REFEDIT_STATUS_TRACKER
  2
AecDbRefEditStatusTracker
  3
AecArchBase50|Product Desc: Autodesk Architectural Desktop 2007 |Company: Autodesk,Inc. |WEB Address: www.autodesk.com
 90
    32897
280
     1
281
     0
  0
CLASS
  1
NPOCOLLECTION
  2
AcDbImpNonPersistentObjectsCollection
  3
ObjectDBX Classes
 90
    33921
280
     1
281
     0
  0
ENDSEC
  0
SECTION
  2
TABLES
  0
TABLE
  2
VPORT
  5
23
102
{ACAD_XDICTIONARY
360
25
102
}
330
0
100
AcDbSymbolTable
 70
     2
  0
VPORT
  5
F0
330
23
100
AcDbSymbolTableRecord
100
AcDbViewportTableRecord
  2
*Active
 70
     0
 10
0.0
 20
0.0
 11
1.0
 21
1.0
 12
9576.722170037184
 22
-2409.873097222601
 13
0.0
 23
0.0
 14
5.0
 24
5.0
 15
10.0
 25
10.0
 16
0.0
 26
0.0
 36
1.0
 17
0.0
 27
0.0
 37
0.0
 40
2239.051742649295
 41
2.573816155988858
 42
50.0
 43
0.0
 44
0.0
 50
0.0
 51
0.0
 71
     0
 72
   100
 73
     1
 74
     1
 75
     0
 76
     0
 77
     0
 78
     1
281
     0
 65
     1
110
0.0
120
0.0
130
0.0
111
1.0
121
0.0
131
0.0
112
0.0
122
1.0
132
0.0
 79
     0
146
0.0
  0
ENDTAB
  0
TABLE
  2
LTYPE
  5
1E
330
0
100
AcDbSymbolTable
 70
     2
  0
LTYPE
  5
1F
330
1E
100
AcDbSymbolTableRecord
100
AcDbLinetypeTableRecord
  2
BYBLOCK
 70
     0
  3

 72
    65
 73
     0
 40
0.0
  0
LTYPE
  5
20
330
1E
100
AcDbSymbolTableRecord
100
AcDbLinetypeTableRecord
  2
BYLAYER
 70
     0
  3

 72
    65
 73
     0
 40
0.0
  0
LTYPE
  5
D
330
1E
100
AcDbSymbolTableRecord
100
AcDbLinetypeTableRecord
  2
CONTINUOUS
 70
     0
  3
Solid line
 72
    65
 73
     0
 40
0.0
  0
LTYPE
  5
5C
330
1E
100
AcDbSymbolTableRecord
100
AcDbLinetypeTableRecord
  2
CENTER
 70
     0
  3
Center ____ _ ____ _ ____ _ ____ _ ____ _ ____
 72
    65
 73
     4
 40
50.8
 49
31.75
 74
     0
 49
-6.349999999999999
 74
     0
 49
6.349999999999999
 74
     0
 49
-6.349999999999999
 74
     0
  0
ENDTAB
  0
TABLE
  2
LAYER
  5
18
102
{ACAD_XDICTIONARY
360
19
102
}
330
0
100
AcDbSymbolTable
 70
     5
  0
LAYER
  5
7
102
{ACAD_XDICTIONARY
360
8
102
}
330
18
100
AcDbSymbolTableRecord
100
AcDbLayerTableRecord
  2
0
 70
     0
 62
     7
  6
CONTINUOUS
370
    -3
390
A
  0
LAYER
  5
35
102
{ACAD_XDICTIONARY
360
36
102
}
330
18
100
AcDbSymbolTableRecord
100
AcDbLayerTableRecord
  2
ANCON-CONCRETE
 70
     0
 62
     2
  6
CONTINUOUS
370
    -3
390
A
  0
LAYER
  5
C3
102
{ACAD_XDICTIONARY
360
C4
102
}
330
18
100
AcDbSymbolTableRecord
100
AcDbLayerTableRecord
  2
ANCON-TEXT
 70
     0
 62
     6
  6
CONTINUOUS
370
    -3
390
A
  0
LAYER
  5
59
102
{ACAD_XDICTIONARY
360
5A
102
}
330
18
100
AcDbSymbolTableRecord
100
AcDbLayerTableRecord
  2
CENTRE
 70
     0
 62
     1
  6
CENTER
370
    -3
390
A
  0
LAYER
  5
3E
330
18
100
AcDbSymbolTableRecord
100
AcDbLayerTableRecord
  2
ANCON-HLD
 70
     0
 62
     3
  6
CONTINUOUS
370
    -3
390
A
1001
AcAecLayerStandard
1000

1000

  0
ENDTAB
  0
TABLE
  2
STYLE
  5
1B
330
0
100
AcDbSymbolTable
 70
     2
  0
STYLE
  5
1C
330
1B
100
AcDbSymbolTableRecord
100
AcDbTextStyleTableRecord
  2
STANDARD
 70
     0
 40
0.0
 41
1.0
 50
0.0
 71
     0
 42
6.0
  3
txt.shx
  4

  0
STYLE
  5
2D
330
1B
100
AcDbSymbolTableRecord
100
AcDbTextStyleTableRecord
  2
ROMANS
 70
     0
 40
0.0
 41
1.0
 50
0.0
 71
     0
 42
5.0
  3
romans
  4

  0
ENDTAB
  0
TABLE
  2
VIEW
  5
21
330
0
100
AcDbSymbolTable
 70
     0
  0
ENDTAB
  0
TABLE
  2
UCS
  5
22
330
0
100
AcDbSymbolTable
 70
     0
  0
ENDTAB
  0
TABLE
  2
APPID
  5
2A
330
0
100
AcDbSymbolTable
 70
     3
  0
APPID
  5
29
330
2A
100
AcDbSymbolTableRecord
100
AcDbRegAppTableRecord
  2
ACAD
 70
     0
  0
APPID
  5
11
330
2A
100
AcDbSymbolTableRecord
100
AcDbRegAppTableRecord
  2
ACAD_PSEXT
 70
     0
  0
APPID
  5
3F
330
2A
100
AcDbSymbolTableRecord
100
AcDbRegAppTableRecord
  2
AcAecLayerStandard
 70
     0
  0
ENDTAB
  0
TABLE
  2
DIMSTYLE
  5
2B
330
0
100
AcDbSymbolTable
 70
     1
100
AcDbDimStyleTable
 71
     1
340
2C
  0
DIMSTYLE
105
2C
330
2B
100
AcDbSymbolTableRecord
100
AcDbDimStyleTableRecord
  2
1-2
 70
     0
 40
0.0
 41
4.0
 42
3.0
 43
10.0
 44
3.0
 46
1.25
 73
     0
 74
     0
 77
     1
 78
    12
140
3.0
141
-3.0
143
0.039
145
1.5
146
0.75
147
1.5
271
     2
272
     2
279
     2
284
    12
285
    12
286
    12
340
2D
  0
ENDTAB
  0
TABLE
  2
BLOCK_RECORD
  5
1
330
0
100
AcDbSymbolTable
 70
     0
  0
BLOCK_RECORD
  5
2
102
{ACAD_XDICTIONARY
360
3
102
}
330
1
100
AcDbSymbolTableRecord
100
AcDbBlockTableRecord
  2
*MODEL_SPACE
340
F
  0
BLOCK_RECORD
  5
12
102
{ACAD_XDICTIONARY
360
13
102
}
330
1
100
AcDbSymbolTableRecord
100
AcDbBlockTableRecord
  2
*PAPER_SPACE
340
17
  0
ENDTAB
  0
ENDSEC
  0
SECTION
  2
BLOCKS
  0
BLOCK
  5
6
330
2
100
AcDbEntity
  8
0
100
AcDbBlockBegin
  2
*MODEL_SPACE
 70
     0
 10
0.0
 20
0.0
 30
0.0
  3
*MODEL_SPACE
  1

  0
ENDBLK
  5
E
330
2
100
AcDbEntity
  8
0
100
AcDbBlockEnd
  0
BLOCK
  5
15
330
12
100
AcDbEntity
 67
     1
  8
0
100
AcDbBlockBegin
  2
*PAPER_SPACE
 70
     0
 10
0.0
 20
0.0
 30
0.0
  3
*PAPER_SPACE
  1

  0
ENDBLK
  5
16
330
12
100
AcDbEntity
 67
     1
  8
0
100
AcDbBlockEnd
  0
ENDSEC
  0
SECTION
  2
ENTITIES
  0
LINE
  5
3D
330
2
100
AcDbEntity
  8
ANCON-HLD
100
AcDbLine
 10
8260.449147775203
 20
-2109.177201739525
 30
0.0
 11
8260.449147775203
 21
-2074.177201739525
 31
0.0
  0
LINE
  5
40
330
2
100
AcDbEntity
  8
ANCON-HLD
100
AcDbLine
 10
8260.449147775203
 20
-2074.177201739525
 30
0.0
 11
8470.449147775202
 21
-2074.177201739525
 31
0.0
  0
LINE
  5
41
330
2
100
AcDbEntity
  8
ANCON-HLD
100
AcDbLine
 10
8260.449147775203
 20
-2109.177201739525
 30
0.0
 11
8470.449147775202
 21
-2109.177201739525
 31
0.0
  0
LINE
  5
42
330
2
100
AcDbEntity
  8
ANCON-HLD
100
AcDbLine
 10
8680.449147775203
 20
-2109.177201739525
 30
0.0
 11
8680.449147775203
 21
-2074.177201739525
 31
0.0
  0
LINE
  5
43
330
2
100
AcDbEntity
  8
ANCON-HLD
100
AcDbLine
 10
8260.449147775203
 20
-2381.017370190895
 30
0.0
 11
8470.449147775202
 21
-2381.017370190895
 31
0.0
  0
LINE
  5
44
330
2
100
AcDbEntity
  8
ANCON-HLD
100
AcDbLine
 10
8260.449147775203
 20
-2346.017370190895
 30
0.0
 11
8470.449147775202
 21
-2346.017370190895
 31
0.0
  0
LINE
  5
45
330
2
100
AcDbEntity
  8
ANCON-HLD
100
AcDbLine
 10
8680.449147775203
 20
-2381.017370190895
 30
0.0
 11
8680.449147775203
 21
-2346.017370190895
 31
0.0
  0
LINE
  5
46
330
2
100
AcDbEntity
  8
ANCON-HLD
100
AcDbLine
 10
8260.449147775203
 20
-2346.017370190895
 30
0.0
 11
8260.449147775203
 21
-2381.017370190895
 31
0.0
  0
LINE
  5
47
330
2
100
AcDbEntity
  8
ANCON-HLD
100
AcDbLine
 10
8610.449147775204
 20
-2429.517370190895
 30
0.0
 11
8610.449147775204
 21
-2297.517370190895
 31
0.0
  0
LINE
  5
48
330
2
100
AcDbEntity
  8
ANCON-HLD
100
AcDbLine
 10
8470.449147775202
 20
-2429.517370190895
 30
0.0
 11
8470.449147775202
 21
-2297.517370190895
 31
0.0
  0
LINE
  5
49
330
2
100
AcDbEntity
  8
ANCON-HLD
100
AcDbLine
 10
8470.449147775202
 20
-2429.517370190895
 30
0.0
 11
8610.449147775204
 21
-2429.517370190895
 31
0.0
  0
LINE
  5
4A
330
2
100
AcDbEntity
  8
ANCON-HLD
100
AcDbLine
 10
8470.449147775202
 20
-2297.517370190895
 30
0.0
 11
8610.449147775204
 21
-2297.517370190895
 31
0.0
  0
LINE
  5
4B
330
2
100
AcDbEntity
  8
ANCON-HLD
100
AcDbLine
 10
8475.449147775201
 20
-2036.677201739525
 30
0.0
 11
8475.449147775201
 21
-2146.677201739525
 31
0.0
  0
LINE
  5
4C
330
2
100
AcDbEntity
  8
ANCON-HLD
100
AcDbLine
 10
8470.449147775202
 20
-2036.677201739525
 30
0.0
 11
8470.449147775202
 21
-2146.677201739525
 31
0.0
  0
LINE
  5
4D
330
2
100
AcDbEntity
  8
ANCON-HLD
100
AcDbLine
 10
8470.449147775202
 20
-2146.677201739525
 30
0.0
 11
8475.449147775201
 21
-2146.677201739525
 31
0.0
  0
ARC
  5
4E
330
2
100
AcDbEntity
  8
ANCON-HLD
100
AcDbCircle
 10
8494.949147775201
 20
-2122.124533661546
 30
0.0
 40
24.5
100
AcDbArc
 50
217.2579160013177
 51
223.1362588713068
  0
ARC
  5
4F
330
2
100
AcDbEntity
  8
ANCON-HLD
100
AcDbCircle
 10
8494.949147775201
 20
-2061.229869817505
 30
0.0
 40
24.5
100
AcDbArc
 50
136.8637411286931
 51
142.7420839986823
  0
LINE
  5
50
330
2
100
AcDbEntity
  8
ANCON-HLD
100
AcDbLine
 10
8470.449147775202
 20
-2036.677201739525
 30
0.0
 11
8475.449147775201
 21
-2036.677201739525
 31
0.0
  0
LINE
  5
51
330
2
100
AcDbEntity
  8
ANCON-HLD
100
AcDbLine
 10
8610.449147775204
 20
-2381.017370190895
 30
0.0
 11
8680.449147775203
 21
-2381.017370190895
 31
0.0
  0
LINE
  5
52
330
2
100
AcDbEntity
  8
ANCON-HLD
100
AcDbLine
 10
8610.449147775204
 20
-2346.017370190895
 30
0.0
 11
8680.449147775203
 21
-2346.017370190895
 31
0.0
  0
CIRCLE
  5
53
330
2
100
AcDbEntity
  8
ANCON-HLD
100
AcDbCircle
 10
8541.449147775201
 20
-2363.517370190896
 30
0.0
 40
17.5
  0
LINE
  5
54
330
2
100
AcDbEntity
  8
ANCON-HLD
100
AcDbLine
 10
8475.449147775201
 20
-2109.177201739525
 30
0.0
 11
8605.449147775203
 21
-2109.177201739525
 31
0.0
  0
LINE
  5
55
330
2
100
AcDbEntity
  8
ANCON-HLD
100
AcDbLine
 10
8475.449147775201
 20
-2074.177201739525
 30
0.0
 11
8605.449147775203
 21
-2074.177201739525
 31
0.0
  0
LINE
  5
56
330
2
100
AcDbEntity
  8
ANCON-HLD
100
AcDbLine
 10
8610.449147775204
 20
-2109.177201739525
 30
0.0
 11
8680.449147775203
 21
-2109.177201739525
 31
0.0
  0
LINE
  5
57
330
2
100
AcDbEntity
  8
ANCON-HLD
100
AcDbLine
 10
8610.449147775204
 20
-2074.177201739525
 30
0.0
 11
8680.449147775203
 21
-2074.177201739525
 31
0.0
  0
LINE
  5
58
330
2
100
AcDbEntity
  8
CENTRE
 48
0.5
100
AcDbLine
 10
8246.080683942928
 20
-2363.517370190896
 30
0.0
 11
8714.877066161308
 21
-2363.517370190896
 31
0.0
  0
LINE
  5
5D
330
2
100
AcDbEntity
  8
CENTRE
 48
0.5
100
AcDbLine
 10
8541.449147775201
 20
-2385.392370190896
 30
0.0
 11
8541.449147775201
 21
-2341.642370190895
 31
0.0
  0
LINE
  5
5E
330
2
100
AcDbEntity
  8
CENTRE
 48
0.5
100
AcDbLine
 10
8244.794648401363
 20
-2091.677201739525
 30
0.0
 11
8708.45150176507
 21
-2091.677201739525
 31
0.0
  0
LINE
  5
5F
330
2
100
AcDbEntity
  8
ANCON-HLD
100
AcDbLine
 10
8610.449147775204
 20
-2124.677201739525
 30
0.0
 11
8610.449147775204
 21
-2058.677201739525
 31
0.0
  0
LINE
  5
60
330
2
100
AcDbEntity
  8
ANCON-HLD
100
AcDbLine
 10
8605.449147775203
 20
-2124.677201739525
 30
0.0
 11
8605.449147775203
 21
-2058.677201739526
 31
0.0
  0
ARC
  5
61
330
2
100
AcDbEntity
  8
ANCON-HLD
100
AcDbCircle
 10
8541.449147775203
 20
-2091.677201739525
 30
0.0
 40
75.0
100
AcDbArc
 50
36.86989764587008
 51
145.5884913302261
  0
ARC
  5
62
330
2
100
AcDbEntity
  8
ANCON-HLD
100
AcDbCircle
 10
8541.449147775203
 20
-2091.677201739525
 30
0.0
 40
75.0
100
AcDbArc
 50
214.4115086697738
 51
323.1301023541299
  0
ARC
  5
63
330
2
100
AcDbEntity
  8
ANCON-HLD
100
AcDbCircle
 10
8585.449147775204
 20
-2058.677201739526
 30
0.0
 40
20.0
100
AcDbArc
 50
0.0
 51
36.86989764587008
  0
ARC
  5
64
330
2
100
AcDbEntity
  8
ANCON-HLD
100
AcDbCircle
 10
8585.449147775204
 20
-2124.677201739525
 30
0.0
 40
20.0
100
AcDbArc
 50
323.1301023541299
 51
0.0
  0
ARC
  5
65
330
2
100
AcDbEntity
  8
ANCON-HLD
100
AcDbCircle
 10
8541.449147775203
 20
-2091.677201739525
 30
0.0
 40
80.0
100
AcDbArc
 50
36.86989764587008
 51
145.5884913302261
  0
ARC
  5
66
330
2
100
AcDbEntity
  8
ANCON-HLD
100
AcDbCircle
 10
8541.449147775203
 20
-2091.677201739525
 30
0.0
 40
80.0
100
AcDbArc
 50
214.4115086697738
 51
323.1301023541299
  0
ARC
  5
67
330
2
100
AcDbEntity
  8
ANCON-HLD
100
AcDbCircle
 10
8585.449147775202
 20
-2124.677201739525
 30
0.0
 40
25.0
100
AcDbArc
 50
323.1301023541299
 51
0.0
  0
ARC
  5
68
330
2
100
AcDbEntity
  8
ANCON-HLD
100
AcDbCircle
 10
8585.449147775204
 20
-2058.677201739525
 30
0.0
 40
25.0
100
AcDbArc
 50
0.0
 51
36.86989764587008
  0
LINE
  5
69
330
2
100
AcDbEntity
  8
ANCON-HLD
100
AcDbLine
 10
8475.449147775204
 20
-2136.887819961355
 30
0.0
 11
8479.574147775203
 21
-2134.062156322491
 31
0.0
  0
LINE
  5
6A
330
2
100
AcDbEntity
  8
ANCON-HLD
100
AcDbLine
 10
8475.449147775204
 20
-2046.466583517696
 30
0.0
 11
8479.574147775203
 21
-2049.292247156561
 31
0.0
  0
LINE
  5
6B
330
2
100
AcDbEntity
  8
CENTRE
 48
0.5
100
AcDbLine
 10
8541.449147775203
 20
-2180.739701739526
 30
0.0
 11
8541.449147775203
 21
-2002.614701739525
 31
0.0
  0
LINE
  5
6C
330
2
100
AcDbEntity
  8
ANCON-CONCRETE
100
AcDbLine
 10
8470.449147775202
 20
-2005.208425678551
 30
0.0
 11
8470.449147775202
 21
-2178.145977800499
 31
0.0
  0
LINE
  5
6D
330
2
100
AcDbEntity
  8
ANCON-CONCRETE
100
AcDbLine
 10
8450.449147775204
 20
-2005.208425678551
 30
0.0
 11
8450.449147775204
 21
-2178.145977800499
 31
0.0
  0
LINE
  5
6E
330
2
100
AcDbEntity
  8
ANCON-CONCRETE
100
AcDbLine
 10
8470.4491477752
 20
-2247.04859412992
 30
0.0
 11
8470.4491477752
 21
-2479.986146251869
 31
0.0
  0
LINE
  5
6F
330
2
100
AcDbEntity
  8
ANCON-CONCRETE
100
AcDbLine
 10
8450.4491477752
 20
-2247.048594129921
 30
0.0
 11
8450.4491477752
 21
-2479.986146251869
 31
0.0
  0
LINE
  5
70
330
2
100
AcDbEntity
  8
ANCON-HLD
100
AcDbLine
 10
8450.4491477752
 20
-2285.517370190895
 30
0.0
 11
8450.4491477752
 21
-2441.517370190895
 31
0.0
  0
LINE
  5
71
330
2
100
AcDbEntity
  8
ANCON-HLD
100
AcDbLine
 10
8310.449147775202
 20
-2297.517370190895
 30
0.0
 11
8310.449147775202
 21
-2429.517370190895
 31
0.0
  0
LINE
  5
72
330
2
100
AcDbEntity
  8
ANCON-HLD
100
AcDbLine
 10
8445.449147775201
 20
-2297.517370190895
 30
0.0
 11
8310.449147775202
 21
-2297.517370190895
 31
0.0
  0
LINE
  5
73
330
2
100
AcDbEntity
  8
ANCON-HLD
100
AcDbLine
 10
8928.658339775241
 20
-2011.677201739526
 30
0.0
 11
8882.65833977524
 21
-2011.677201739526
 31
0.0
  0
LINE
  5
74
330
2
100
AcDbEntity
  8
ANCON-HLD
100
AcDbLine
 10
8940.658339775239
 20
-2036.677201739525
 30
0.0
 11
8784.658339775239
 21
-2036.677201739525
 31
0.0
  0
LINE
  5
75
330
2
100
AcDbEntity
  8
ANCON-HLD
100
AcDbLine
 10
8940.658339775239
 20
-2146.677201739525
 30
0.0
 11
8784.658339775239
 21
-2146.677201739525
 31
0.0
  0
CIRCLE
  5
76
330
2
100
AcDbEntity
  8
ANCON-HLD
100
AcDbCircle
 10
8789.658339775241
 20
-2141.677201739526
 30
0.0
 40
2.5
  0
LINE
  5
77
330
2
100
AcDbEntity
  8
ANCON-HLD
100
AcDbLine
 10
8784.658339775239
 20
-2146.677201739525
 30
0.0
 11
8784.658339775239
 21
-2036.677201739525
 31
0.0
  0
LINE
  5
78
330
2
100
AcDbEntity
  8
CENTRE
 48
0.125
100
AcDbLine
 10
8794.65833977524
 20
-2141.677201739526
 30
0.0
 11
8784.658339775239
 21
-2141.677201739526
 31
0.0
  0
LINE
  5
79
330
2
100
AcDbEntity
  8
CENTRE
 48
0.125
100
AcDbLine
 10
8789.658339775241
 20
-2136.677201739525
 30
0.0
 11
8789.658339775241
 21
-2146.677201739525
 31
0.0
  0
LINE
  5
7A
330
2
100
AcDbEntity
  8
ANCON-HLD
100
AcDbLine
 10
8796.658339775239
 20
-2171.677201739525
 30
0.0
 11
8796.658339775239
 21
-2146.677201739525
 31
0.0
  0
CIRCLE
  5
7B
330
2
100
AcDbEntity
  8
ANCON-HLD
100
AcDbCircle
 10
8862.65833977524
 20
-2091.677201739525
 30
0.0
 40
18.0
  0
CIRCLE
  5
7C
330
2
100
AcDbEntity
  8
ANCON-HLD
100
AcDbCircle
 10
8862.65833977524
 20
-2091.677201739525
 30
0.0
 40
20.0
  0
CIRCLE
  5
7D
330
2
100
AcDbEntity
  8
ANCON-HLD
100
AcDbCircle
 10
8789.658339775241
 20
-2041.677201739525
 30
0.0
 40
2.5
  0
LINE
  5
7E
330
2
100
AcDbEntity
  8
CENTRE
 48
0.125
100
AcDbLine
 10
8789.658339775241
 20
-2036.677201739525
 30
0.0
 11
8789.658339775241
 21
-2046.677201739525
 31
0.0
  0
LINE
  5
7F
330
2
100
AcDbEntity
  8
CENTRE
 48
0.125
100
AcDbLine
 10
8794.65833977524
 20
-2041.677201739525
 30
0.0
 11
8784.658339775239
 21
-2041.677201739525
 31
0.0
  0
LINE
  5
80
330
2
100
AcDbEntity
  8
ANCON-HLD
100
AcDbLine
 10
8796.658339775239
 20
-2036.677201739526
 30
0.0
 11
8796.658339775239
 21
-2011.677201739526
 31
0.0
  0
LINE
  5
81
330
2
100
AcDbEntity
  8
ANCON-HLD
100
AcDbLine
 10
8445.449147775201
 20
-2429.517370190895
 30
0.0
 11
8310.449147775202
 21
-2429.517370190895
 31
0.0
  0
CIRCLE
  5
82
330
2
100
AcDbEntity
  8
ANCON-HLD
100
AcDbCircle
 10
8935.65833977524
 20
-2141.677201739526
 30
0.0
 40
2.5
  0
LINE
  5
83
330
2
100
AcDbEntity
  8
ANCON-HLD
100
AcDbLine
 10
8445.449147775205
 20
-2146.677201739525
 30
0.0
 11
8445.449147775205
 21
-2036.677201739525
 31
0.0
  0
LINE
  5
84
330
2
100
AcDbEntity
  8
ANCON-HLD
100
AcDbLine
 10
8450.449147775204
 20
-2146.677201739525
 30
0.0
 11
8450.449147775204
 21
-2036.677201739525
 31
0.0
  0
LINE
  5
85
330
2
100
AcDbEntity
  8
ANCON-HLD
100
AcDbLine
 10
8940.658339775239
 20
-2146.677201739525
 30
0.0
 11
8940.658339775239
 21
-2036.677201739525
 31
0.0
  0
LINE
  5
86
330
2
100
AcDbEntity
  8
CENTRE
 48
0.125
100
AcDbLine
 10
8935.65833977524
 20
-2136.677201739525
 30
0.0
 11
8935.65833977524
 21
-2146.677201739525
 31
0.0
  0
LINE
  5
87
330
2
100
AcDbEntity
  8
CENTRE
 48
0.125
100
AcDbLine
 10
8940.658339775239
 20
-2141.677201739526
 30
0.0
 11
8930.65833977524
 21
-2141.677201739526
 31
0.0
  0
LINE
  5
88
330
2
100
AcDbEntity
  8
ANCON-HLD
100
AcDbLine
 10
8928.658339775241
 20
-2171.677201739525
 30
0.0
 11
8928.658339775241
 21
-2146.677201739525
 31
0.0
  0
CIRCLE
  5
89
330
2
100
AcDbEntity
  8
ANCON-HLD
100
AcDbCircle
 10
8379.449147775202
 20
-2363.517370190896
 30
0.0
 40
20.0
  0
LINE
  5
8A
330
2
100
AcDbEntity
  8
ANCON-HLD
100
AcDbLine
 10
8445.449147775201
 20
-2285.517370190895
 30
0.0
 11
8445.449147775201
 21
-2441.517370190895
 31
0.0
  0
LINE
  5
8B
330
2
100
AcDbEntity
  8
ANCON-HLD
100
AcDbLine
 10
8450.449147775204
 20
-2036.677201739525
 30
0.0
 11
8445.449147775205
 21
-2036.677201739525
 31
0.0
  0
CIRCLE
  5
8C
330
2
100
AcDbEntity
  8
ANCON-HLD
100
AcDbCircle
 10
8935.65833977524
 20
-2041.677201739525
 30
0.0
 40
2.5
  0
LINE
  5
8D
330
2
100
AcDbEntity
  8
CENTRE
 48
0.125
100
AcDbLine
 10
8940.658339775239
 20
-2041.677201739525
 30
0.0
 11
8930.65833977524
 21
-2041.677201739525
 31
0.0
  0
LINE
  5
8E
330
2
100
AcDbEntity
  8
CENTRE
 48
0.125
100
AcDbLine
 10
8935.65833977524
 20
-2036.677201739525
 30
0.0
 11
8935.65833977524
 21
-2046.677201739525
 31
0.0
  0
LINE
  5
8F
330
2
100
AcDbEntity
  8
ANCON-HLD
100
AcDbLine
 10
8928.658339775241
 20
-2036.677201739525
 30
0.0
 11
8928.658339775241
 21
-2011.677201739526
 31
0.0
  0
LINE
  5
90
330
2
100
AcDbEntity
  8
ANCON-HLD
100
AcDbLine
 10
8450.449147775204
 20
-2146.677201739525
 30
0.0
 11
8445.449147775205
 21
-2146.677201739525
 31
0.0
  0
LINE
  5
91
330
2
100
AcDbEntity
  8
ANCON-HLD
100
AcDbLine
 10
8445.449147775201
 20
-2441.517370190895
 30
0.0
 11
8450.4491477752
 21
-2441.517370190895
 31
0.0
  0
LINE
  5
92
330
2
100
AcDbEntity
  8
ANCON-HLD
100
AcDbLine
 10
8445.449147775201
 20
-2285.517370190895
 30
0.0
 11
8450.4491477752
 21
-2285.517370190895
 31
0.0
  0
LINE
  5
93
330
2
100
AcDbEntity
  8
ANCON-HLD
100
AcDbLine
 10
8259.643992365473
 20
-2070.677201739525
 30
0.0
 11
8259.643992365473
 21
-2112.677201739525
 31
0.0
  0
LINE
  5
94
330
2
100
AcDbEntity
  8
ANCON-HLD
100
AcDbLine
 10
8259.643992365473
 20
-2341.317370190896
 30
0.0
 11
8259.643992365473
 21
-2385.717370190896
 31
0.0
  0
LWPOLYLINE
  5
95
330
2
100
AcDbEntity
  8
ANCON-HLD
100
AcDbPolyline
 90
        2
 70
     0
 43
0.0
 10
8445.449147775205
 20
-2071.677201739525
 10
8315.449147775202
 20
-2071.677201739525
  0
LWPOLYLINE
  5
96
330
2
100
AcDbEntity
  8
ANCON-HLD
100
AcDbPolyline
 90
        2
 70
     0
 43
0.0
 10
8445.449147775205
 20
-2111.677201739525
 10
8315.449147775206
 20
-2111.677201739525
  0
LINE
  5
97
330
2
100
AcDbEntity
  8
ANCON-HLD
100
AcDbLine
 10
8310.449147775203
 20
-2071.677201739525
 30
0.0
 11
8259.643992365473
 21
-2071.677201739525
 31
0.0
  0
LINE
  5
98
330
2
100
AcDbEntity
  8
ANCON-HLD
100
AcDbLine
 10
8310.449147775205
 20
-2111.677201739525
 30
0.0
 11
8259.643992365473
 21
-2111.677201739525
 31
0.0
  0
LINE
  5
99
330
2
100
AcDbEntity
  8
ANCON-HLD
100
AcDbLine
 10
8310.449147775202
 20
-2342.317370190896
 30
0.0
 11
8259.643992365473
 21
-2342.317370190896
 31
0.0
  0
LINE
  5
9A
330
2
100
AcDbEntity
  8
ANCON-HLD
100
AcDbLine
 10
8310.449147775202
 20
-2384.717370190896
 30
0.0
 11
8259.643992365473
 21
-2384.717370190896
 31
0.0
  0
LINE
  5
9B
330
2
100
AcDbEntity
  8
CENTRE
 48
0.5
100
AcDbLine
 10
8837.65833977524
 20
-2091.677201739525
 30
0.0
 11
8887.65833977524
 21
-2091.677201739525
 31
0.0
  0
LINE
  5
9C
330
2
100
AcDbEntity
  8
CENTRE
 48
0.5
100
AcDbLine
 10
8862.65833977524
 20
-2180.739701739526
 30
0.0
 11
8862.65833977524
 21
-2002.614701739526
 31
0.0
  0
LINE
  5
9D
330
2
100
AcDbEntity
  8
ANCON-HLD
100
AcDbLine
 10
8259.643992365473
 20
-2070.677201739525
 30
0.0
 11
8235.643992365474
 21
-2070.677201739525
 31
0.0
  0
ARC
  5
9E
330
2
100
AcDbEntity
  8
ANCON-HLD
100
AcDbCircle
 10
8235.643992365474
 20
-2071.677201739525
 30
0.0
 40
1.0
100
AcDbArc
 50
90.0
 51
180.0
  0
LINE
  5
9F
330
2
100
AcDbEntity
  8
ANCON-HLD
100
AcDbLine
 10
8259.643992365473
 20
-2112.677201739525
 30
0.0
 11
8235.643992365474
 21
-2112.677201739525
 31
0.0
  0
ARC
  5
A0
330
2
100
AcDbEntity
  8
ANCON-HLD
100
AcDbCircle
 10
8235.643992365474
 20
-2111.677201739525
 30
0.0
 40
1.0
100
AcDbArc
 50
180.0
 51
270.0
  0
LINE
  5
A1
330
2
100
AcDbEntity
  8
ANCON-HLD
100
AcDbLine
 10
8234.643992365475
 20
-2111.677201739525
 30
0.0
 11
8234.643992365475
 21
-2071.677201739525
 31
0.0
  0
LINE
  5
A2
330
2
100
AcDbEntity
  8
ANCON-HLD
100
AcDbLine
 10
8259.643992365473
 20
-2341.317370190896
 30
0.0
 11
8235.643992365472
 21
-2341.317370190896
 31
0.0
  0
ARC
  5
A3
330
2
100
AcDbEntity
  8
ANCON-HLD
100
AcDbCircle
 10
8235.643992365472
 20
-2342.317370190896
 30
0.0
 40
1.0
100
AcDbArc
 50
90.0
 51
180.0
  0
LINE
  5
A4
330
2
100
AcDbEntity
  8
ANCON-HLD
100
AcDbLine
 10
8259.643992365473
 20
-2385.717370190896
 30
0.0
 11
8235.643992365472
 21
-2385.717370190896
 31
0.0
  0
ARC
  5
A5
330
2
100
AcDbEntity
  8
ANCON-HLD
100
AcDbCircle
 10
8235.643992365472
 20
-2384.717370190896
 30
0.0
 40
1.0
100
AcDbArc
 50
180.0
 51
270.0
  0
LINE
  5
A6
330
2
100
AcDbEntity
  8
ANCON-HLD
100
AcDbLine
 10
8234.643992365473
 20
-2384.717370190896
 30
0.0
 11
8234.643992365473
 21
-2342.317370190896
 31
0.0
  0
LINE
  5
A7
330
2
100
AcDbEntity
  8
CENTRE
 48
0.5
100
AcDbLine
 10
8404.449147775201
 20
-2363.517370190896
 30
0.0
 11
8354.449147775202
 21
-2363.517370190896
 31
0.0
  0
LINE
  5
A8
330
2
100
AcDbEntity
  8
CENTRE
 48
0.5
100
AcDbLine
 10
8379.449147775202
 20
-2338.517370190896
 30
0.0
 11
8379.449147775202
 21
-2388.517370190895
 31
0.0
  0
LINE
  5
A9
330
2
100
AcDbEntity
  8
CENTRE
 48
0.25
100
AcDbLine
 10
8455.449147775203
 20
-2436.517370190895
 30
0.0
 11
8440.449147775202
 21
-2436.517370190895
 31
0.0
  0
LINE
  5
AA
330
2
100
AcDbEntity
  8
CENTRE
 48
0.25
100
AcDbLine
 10
8455.449147775203
 20
-2290.517370190896
 30
0.0
 11
8440.449147775202
 21
-2290.517370190896
 31
0.0
  0
LINE
  5
AB
330
2
100
AcDbEntity
  8
CENTRE
 48
0.25
100
AcDbLine
 10
8455.449147775203
 20
-2041.677201739525
 30
0.0
 11
8440.449147775202
 21
-2041.677201739525
 31
0.0
  0
LINE
  5
AC
330
2
100
AcDbEntity
  8
CENTRE
 48
0.25
100
AcDbLine
 10
8455.449147775203
 20
-2141.677201739526
 30
0.0
 11
8440.449147775202
 21
-2141.677201739526
 31
0.0
  0
CIRCLE
  5
AD
330
2
100
AcDbEntity
  8
ANCON-HLD
100
AcDbCircle
 10
8400.449147775203
 20
-2091.677201739525
 30
0.0
 40
3.0
  0
LINE
  5
AE
330
2
100
AcDbEntity
  8
CENTRE
 48
0.5
100
AcDbLine
 10
8400.449147775203
 20
-2085.677201739525
 30
0.0
 11
8400.449147775203
 21
-2097.677201739525
 31
0.0
  0
LINE
  5
AF
330
2
100
AcDbEntity
  8
ANCON-HLD
100
AcDbLine
 10
8310.449147775203
 20
-2058.677201739524
 30
0.0
 11
8310.449147775203
 21
-2124.677201739525
 31
0.0
  0
LINE
  5
B0
330
2
100
AcDbEntity
  8
ANCON-HLD
100
AcDbLine
 10
8315.449147775202
 20
-2058.677201739525
 30
0.0
 11
8315.449147775202
 21
-2124.677201739524
 31
0.0
  0
ARC
  5
B1
330
2
100
AcDbEntity
  8
ANCON-HLD
100
AcDbCircle
 10
8379.449147775202
 20
-2091.677201739525
 30
0.0
 40
75.0
100
AcDbArc
 50
216.8698976458662
 51
325.5884913301869
  0
ARC
  5
B2
330
2
100
AcDbEntity
  8
ANCON-HLD
100
AcDbCircle
 10
8379.449147775202
 20
-2091.677201739525
 30
0.0
 40
75.0
100
AcDbArc
 50
34.41150866981316
 51
143.1301023541338
  0
ARC
  5
B3
330
2
100
AcDbEntity
  8
ANCON-HLD
100
AcDbCircle
 10
8335.449147775204
 20
-2124.677201739524
 30
0.0
 40
20.0
100
AcDbArc
 50
180.0
 51
216.8698976458662
  0
ARC
  5
B4
330
2
100
AcDbEntity
  8
ANCON-HLD
100
AcDbCircle
 10
8335.449147775204
 20
-2058.677201739525
 30
0.0
 40
20.0
100
AcDbArc
 50
143.1301023541338
 51
180.0
  0
ARC
  5
B5
330
2
100
AcDbEntity
  8
ANCON-HLD
100
AcDbCircle
 10
8379.449147775202
 20
-2091.677201739525
 30
0.0
 40
80.0
100
AcDbArc
 50
216.8698976458662
 51
325.5884913301869
  0
ARC
  5
B6
330
2
100
AcDbEntity
  8
ANCON-HLD
100
AcDbCircle
 10
8379.449147775202
 20
-2091.677201739525
 30
0.0
 40
80.0
100
AcDbArc
 50
34.41150866981316
 51
143.1301023541338
  0
ARC
  5
B7
330
2
100
AcDbEntity
  8
ANCON-HLD
100
AcDbCircle
 10
8335.449147775204
 20
-2058.677201739524
 30
0.0
 40
25.0
100
AcDbArc
 50
143.1301023541338
 51
180.0
  0
ARC
  5
B8
330
2
100
AcDbEntity
  8
ANCON-HLD
100
AcDbCircle
 10
8335.449147775204
 20
-2124.677201739525
 30
0.0
 40
25.0
100
AcDbArc
 50
180.0
 51
216.8698976458662
  0
LINE
  5
B9
330
2
100
AcDbEntity
  8
ANCON-HLD
100
AcDbLine
 10
8445.449147775205
 20
-2046.466583517696
 30
0.0
 11
8441.324147775203
 21
-2049.29224715656
 31
0.0
  0
LINE
  5
BA
330
2
100
AcDbEntity
  8
ANCON-HLD
100
AcDbLine
 10
8445.449147775205
 20
-2136.887819961354
 30
0.0
 11
8441.324147775203
 21
-2134.06215632249
 31
0.0
  0
LINE
  5
BB
330
2
100
AcDbEntity
  8
CENTRE
 48
0.5
100
AcDbLine
 10
8474.871187987256
 20
-2091.677201739525
 30
0.0
 11
8220.821148249733
 21
-2091.677201739525
 31
0.0
  0
LINE
  5
BC
330
2
100
AcDbEntity
  8
CENTRE
 48
0.5
100
AcDbLine
 10
8379.449147775202
 20
-2002.614701739525
 30
0.0
 11
8379.449147775202
 21
-2180.739701739524
 31
0.0
  0
ELLIPSE
  5
BD
330
2
100
AcDbEntity
  8
ANCON-HLD
100
AcDbEllipse
 10
8862.65833977524
 20
-2011.677201739526
 30
0.0
 11
-20.0
 21
0.0
 31
0.0
210
0.0
220
0.0
230
1.0
 40
0.1324570280381522
 41
0.0
 42
3.141592653589793
  0
LINE
  5
BE
330
2
100
AcDbEntity
  8
ANCON-HLD
100
AcDbLine
 10
8842.65833977524
 20
-2011.677201739526
 30
0.0
 11
8796.658339775239
 21
-2011.677201739526
 31
0.0
  0
LINE
  5
BF
330
2
100
AcDbEntity
  8
ANCON-HLD
100
AcDbLine
 10
8842.65833977524
 20
-2171.677201739525
 30
0.0
 11
8796.658339775239
 21
-2171.677201739525
 31
0.0
  0
ELLIPSE
  5
C0
330
2
100
AcDbEntity
  8
ANCON-HLD
100
AcDbEllipse
 10
8862.65833977524
 20
-2171.677201739525
 30
0.0
 11
-20.0
 21
0.0
 31
0.0
210
0.0
220
0.0
230
-1.0
 40
0.1324570280381522
 41
0.0
 42
3.141592653589793
  0
LINE
  5
C1
330
2
100
AcDbEntity
  8
ANCON-HLD
100
AcDbLine
 10
8928.658339775241
 20
-2171.677201739525
 30
0.0
 11
8882.65833977524
 21
-2171.677201739525
 31
0.0
  0
LINE
  5
C2
330
2
100
AcDbEntity
  8
ANCON-TEXT
100
AcDbLine
 10
8433.886766871449
 20
-2525.342534222861
 30
0.0
 11
8433.886766871449
 21
-2578.440780356954
 31
0.0
  0
TEXT
  5
C6
330
2
100
AcDbEntity
  8
ANCON-TEXT
100
AcDbText
 10
8395.964981863043
 20
-2567.625223263855
 30
0.0
 40
5.0
  1
???
  7
ROMANS
 72
     4
 11
8402.393553291615
 21
-2565.125223263855
 31
0.0
100
AcDbText
  0
LINE
  5
C7
330
2
100
AcDbEntity
  8
ANCON-TEXT
100
AcDbLine
 10
8369.016182736649
 20
-2525.342534222861
 30
0.0
 11
8369.016182736649
 21
-2578.440780356954
 31
0.0
  0
TEXT
  5
C8
330
2
100
AcDbEntity
  8
ANCON-TEXT
100
AcDbText
 10
8374.536410434471
 20
-2535.603419885271
 30
0.0
 40
5.0
  1
SERVICEABILITY
  7
ROMANS
 72
     4
 11
8402.393553291615
 21
-2533.103419885271
 31
0.0
100
AcDbText
  0
TEXT
  5
C9
330
2
100
AcDbEntity
  8
ANCON-TEXT
100
AcDbText
 10
8377.63164852971
 20
-2546.54669882385
 30
0.0
 40
5.0
  1
LOAD ( kN )
  7
ROMANS
 72
     4
 11
8402.393553291615
 21
-2544.403841680993
 31
0.0
100
AcDbText
  0
LINE
  5
CA
330
2
100
AcDbEntity
  8
ANCON-TEXT
100
AcDbLine
 10
8308.508089179587
 20
-2525.342534222861
 30
0.0
 11
8308.508089179587
 21
-2578.440780356954
 31
0.0
  0
TEXT
  5
CB
330
2
100
AcDbEntity
  8
ANCON-TEXT
100
AcDbText
 10
8265.938568566751
 20
-2535.608250382403
 30
0.0
 40
5.0
  1
HLD REF:
  7
ROMANS
 72
     4
 11
8283.676663804847
 21
-2533.108250382403
 31
0.0
100
AcDbText
  0
TEXT
  5
CC
330
2
100
AcDbEntity
  8
ANCON-TEXT
100
AcDbText
 10
8267.869743767805
 20
-2567.625223263855
 30
0.0
 40
5.0
  1
HLD 35
  7
ROMANS
 72
     4
 11
8282.393553291615
 21
-2565.125223263855
 31
0.0
100
AcDbText
  0
LINE
  5
CD
330
2
100
AcDbEntity
  8
ANCON-TEXT
100
AcDbLine
 10
8258.508089179587
 20
-2525.342534222861
 30
0.0
 11
8258.508089179587
 21
-2578.440780356954
 31
0.0
  0
LINE
  5
CE
330
2
100
AcDbEntity
  8
ANCON-TEXT
100
AcDbLine
 10
8258.508089179587
 20
-2578.440780356954
 30
0.0
 11
8433.886766871449
 21
-2578.440780356954
 31
0.0
  0
LINE
  5
CF
330
2
100
AcDbEntity
  8
ANCON-TEXT
100
AcDbLine
 10
8258.508089179587
 20
-2551.413295281907
 30
0.0
 11
8433.886766871449
 21
-2551.413295281907
 31
0.0
  0
LINE
  5
D0
330
2
100
AcDbEntity
  8
ANCON-TEXT
100
AcDbLine
 10
8258.508089179587
 20
-2525.342534222861
 30
0.0
 11
8433.886766871449
 21
-2525.342534222861
 31
0.0
  0
TEXT
  5
D1
330
2
100
AcDbEntity
  8
ANCON-TEXT
100
AcDbText
 10
8313.611757544473
 20
-2535.608250382403
 30
0.0
 40
5.0
  1
DESIGN JOINT
  7
ROMANS
 72
     4
 11
8339.683186115903
 21
-2533.108250382403
 31
0.0
100
AcDbText
  0
TEXT
  5
D2
330
2
100
AcDbEntity
  8
ANCON-TEXT
100
AcDbText
 10
8330.012600910661
 20
-2567.625223263855
 30
0.0
 40
5.0
  1
?? MM
  7
ROMANS
 72
     4
 11
8342.393553291614
 21
-2565.125223263855
 31
0.0
100
AcDbText
  0
TEXT
  5
D3
330
2
100
AcDbEntity
  8
ANCON-TEXT
100
AcDbText
 10
8329.087948020664
 20
-2546.505873770022
 30
0.0
 40
5.0
  1
WIDTH
  7
ROMANS
 72
     4
 11
8339.683186115903
 21
-2544.005873770022
 31
0.0
100
AcDbText
  0
LINE
  5
D4
330
2
100
AcDbEntity
  8
ANCON-TEXT
100
AcDbLine
 10
8772.870262229242
 20
-2557.226259996736
 30
0.0
 11
8772.870262229242
 21
-2610.259952582286
 31
0.0
  0
LINE
  5
D5
330
2
100
AcDbEntity
  8
ANCON-TEXT
100
AcDbLine
 10
8637.973163045364
 20
-2527.859746329642
 30
0.0
 11
8637.973163045364
 21
-2539.777721621643
 31
0.0
  0
LINE
  5
D6
330
2
100
AcDbEntity
  8
ANCON-TEXT
100
AcDbLine
 10
8570.383312122601
 20
-2527.859746329642
 30
0.0
 11
8570.383312122601
 21
-2539.777721621643
 31
0.0
  0
LINE
  5
D7
330
2
100
AcDbEntity
  8
ANCON-TEXT
100
AcDbLine
 10
8570.383312122601
 20
-2557.226259996736
 30
0.0
 11
8570.383312122601
 21
-2610.259952582286
 31
0.0
  0
TEXT
  5
D8
330
2
100
AcDbEntity
  8
ANCON-TEXT
100
AcDbText
 10
8575.652773607737
 20
-2606.556902150857
 30
0.0
 40
5.0
  1
LOAD OF ??? kN
  7
ROMANS
 72
     4
 11
8608.271821226784
 21
-2604.056902150857
 31
0.0
100
AcDbText
  0
LINE
  5
D9
330
2
100
AcDbEntity
  8
ANCON-TEXT
100
AcDbLine
 10
8570.383312122601
 20
-2527.859746329642
 30
0.0
 11
8637.973163045364
 21
-2527.859746329642
 31
0.0
  0
LINE
  5
DA
330
2
100
AcDbEntity
  8
ANCON-TEXT
100
AcDbLine
 10
8570.383312122601
 20
-2539.777721621643
 30
0.0
 11
8637.973163045364
 21
-2539.777721621643
 31
0.0
  0
TEXT
  5
DB
330
2
100
AcDbEntity
  8
ANCON-TEXT
100
AcDbText
 10
8575.234564653138
 20
-2536.496856445485
 30
0.0
 40
5.0
  1
ANCON HLD 35
  7
ROMANS
 72
     4
 11
8604.401231319803
 21
-2533.996856445485
 31
0.0
100
AcDbText
  0
TEXT
  5
DC
330
2
100
AcDbEntity
  8
ANCON-TEXT
100
AcDbText
 10
8442.954576441316
 20
-2566.431310909981
 30
0.0
 40
5.0
  1
SPECIFICATION BY DESCRIPTION
  7
ROMANS
 72
     4
 11
8502.597433584172
 21
-2563.931310909981
 31
0.0
100
AcDbText
  0
TEXT
  5
DD
330
2
100
AcDbEntity
  8
ANCON-TEXT
100
AcDbText
 10
8442.810939831689
 20
-2536.496856445485
 30
0.0
 40
5.0
  1
SPECIFICATION BY PRODUCT
  7
ROMANS
 72
     4
 11
8496.26332078407
 21
-2533.996856445485
 31
0.0
100
AcDbText
  0
TEXT
  5
DE
330
2
100
AcDbEntity
  8
ANCON-TEXT
100
AcDbText
 10
8574.675045327442
 20
-2566.467059536506
 30
0.0
 40
5.0
  1
TWO PART STAINLESS STEEL SHEAR CONNECTOR
  7
ROMANS
 72
     4
 11
8667.294092946489
 21
-2563.967059536506
 31
0.0
100
AcDbText
  0
TEXT
  5
DF
330
2
100
AcDbEntity
  8
ANCON-TEXT
100
AcDbText
 10
8573.953860921385
 20
-2576.571771862297
 30
0.0
 40
5.0
  1
COMPRISING SLEEVE AND DOWEL COMPONENT
  7
ROMANS
 72
     4
 11
8661.930051397575
 21
-2574.071771862297
 31
0.0
100
AcDbText
  0
TEXT
  5
E0
330
2
100
AcDbEntity
  8
ANCON-TEXT
100
AcDbText
 10
8574.466992851395
 20
-2596.521976985895
 30
0.0
 40
5.0
  1
AND CAPABLE OF TRANSFERRING A SERVICEABILITY
  7
ROMANS
 72
     4
 11
8671.847945232347
 21
-2594.021976985895
 31
0.0
100
AcDbText
  0
LINE
  5
E1
330
2
100
AcDbEntity
  8
ANCON-TEXT
100
AcDbLine
 10
8570.383312122601
 20
-2610.259952582286
 30
0.0
 11
8772.870262229242
 21
-2610.259952582286
 31
0.0
  0
LINE
  5
E2
330
2
100
AcDbEntity
  8
ANCON-TEXT
100
AcDbLine
 10
8570.383312122601
 20
-2557.226259996736
 30
0.0
 11
8772.870262229242
 21
-2557.226259996736
 31
0.0
  0
TEXT
  5
E3
330
2
100
AcDbEntity
  8
ANCON-TEXT
100
AcDbText
 10
8574.012557681442
 20
-2586.472919571966
 30
0.0
 40
5.0
  1
SUITABLE FOR A DESIGN JOINT WIDTH OF ?? MM
  7
ROMANS
 72
     4
 11
8668.893510062394
 21
-2583.972919571966
 31
0.0
100
AcDbText
  0
ENDSEC
  0
SECTION
  2
OBJECTS
  0
DICTIONARY
  5
C
330
0
100
AcDbDictionary
281
     1
  3
ACAD_COLOR
350
33
  3
ACAD_GROUP
350
2F
  3
ACAD_LAYOUT
350
10
  3
ACAD_MATERIAL
350
32
  3
ACAD_MLINESTYLE
350
30
  3
ACAD_PLOTSETTINGS
350
31
  3
ACAD_PLOTSTYLENAME
350
B
  3
ACAD_TABLESTYLE
350
34
  3
ACAD_VISUALSTYLE
350
28
  3
ACDBHEADERROUNDTRIPXREC
350
F1
  3
AcDbVariableDictionary
350
E6
  0
DICTIONARY
  5
25
330
23
100
AcDbDictionary
280
     1
281
     1
  3
ACAD_XREC_ROUNDTRIP
360
26
  0
DICTIONARY
  5
19
330
18
100
AcDbDictionary
280
     1
281
     1
  3
ACAD_LAYERSTATES
360
1A
  0
DICTIONARY
  5
8
330
7
100
AcDbDictionary
280
     1
281
     1
  3
ADSK_XREC_LAYER_RECONCILED
360
9
  0
DICTIONARY
  5
36
330
35
100
AcDbDictionary
280
     1
281
     1
  3
ADSK_XREC_LAYER_RECONCILED
360
37
  0
DICTIONARY
  5
C4
330
C3
100
AcDbDictionary
280
     1
281
     1
  3
ADSK_XREC_LAYER_RECONCILED
360
C5
  0
DICTIONARY
  5
5A
330
59
100
AcDbDictionary
280
     1
281
     1
  3
ADSK_XREC_LAYER_RECONCILED
360
5B
  0
DICTIONARY
  5
3
330
2
100
AcDbDictionary
280
     1
281
     1
  3
ACAD_LAYOUTSELFREF
360
4
  3
ACAD_SORTENTS
360
E4
  0
DICTIONARY
  5
13
330
12
100
AcDbDictionary
280
     1
281
     1
  3
ACAD_LAYOUTSELFREF
360
14
  0
DICTIONARY
  5
33
102
{ACAD_REACTORS
330
C
102
}
330
C
100
AcDbDictionary
281
     1
  0
DICTIONARY
  5
2F
102
{ACAD_REACTORS
330
C
102
}
330
C
100
AcDbDictionary
281
     1
  0
DICTIONARY
  5
10
102
{ACAD_REACTORS
330
C
102
}
330
C
100
AcDbDictionary
281
     1
  3
Layout1
350
17
  3
Model
350
F
  0
DICTIONARY
  5
32
102
{ACAD_REACTORS
330
C
102
}
330
C
100
AcDbDictionary
281
     1
  0
DICTIONARY
  5
30
102
{ACAD_REACTORS
330
C
102
}
330
C
100
AcDbDictionary
281
     1
  3
STANDARD
350
38
  0
DICTIONARY
  5
31
102
{ACAD_REACTORS
330
C
102
}
330
C
100
AcDbDictionary
281
     1
  0
ACDBDICTIONARYWDFLT
  5
B
102
{ACAD_REACTORS
330
C
102
}
330
C
100
AcDbDictionary
281
     1
  3
Normal
350
A
100
AcDbDictionaryWithDefault
340
A
  0
DICTIONARY
  5
34
102
{ACAD_REACTORS
330
C
102
}
330
C
100
AcDbDictionary
281
     1
  3
Standard
350
39
  0
DICTIONARY
  5
28
102
{ACAD_REACTORS
330
C
102
}
330
C
100
AcDbDictionary
281
     1
  3
2dWireframe
350
27
  0
DICTIONARY
  5
F1
102
{ACAD_REACTORS
330
C
102
}
330
C
100
AcDbDictionary
281
     1
  0
DICTIONARY
  5
E6
102
{ACAD_REACTORS
330
C
102
}
330
C
100
AcDbDictionary
281
     1
  3
CTABLESTYLE
350
E7
  3
DIMASSOC
350
EE
  3
HIDETEXT
350
ED
  3
PROJECTNAME
350
EF
  0
XRECORD
  5
26
102
{ACAD_REACTORS
330
25
102
}
330
25
100
AcDbXrecord
280
     1
102
VTR_0.000_0.000_1.000_1.000_VISUALSTYLE
340
27
102
VTR_0.000_0.000_1.000_1.000_GRIDDISPLAY
 70
     3
102
VTR_0.000_0.000_1.000_1.000_GRIDMAJOR
 70
     5
102
VTR_0.000_0.000_1.000_1.000_DEFAULTLIGHTING
280
     1
102
VTR_0.000_0.000_1.000_1.000_DEFAULTLIGHTINGTYPE
 70
     1
102
VTR_0.000_0.000_1.000_1.000_BRIGHTNESS
141
0.0
102
VTR_0.000_0.000_1.000_1.000_CONTRAST
142
0.0
  0
DICTIONARY
  5
1A
102
{ACAD_REACTORS
330
19
102
}
330
19
100
AcDbDictionary
281
     1
  0
XRECORD
  5
9
102
{ACAD_REACTORS
330
8
102
}
330
8
100
AcDbXrecord
280
     1
290
     1
  0
XRECORD
  5
37
102
{ACAD_REACTORS
330
36
102
}
330
36
100
AcDbXrecord
280
     1
290
     1
  0
XRECORD
  5
C5
102
{ACAD_REACTORS
330
C4
102
}
330
C4
100
AcDbXrecord
280
     1
290
     1
  0
XRECORD
  5
5B
102
{ACAD_REACTORS
330
5A
102
}
330
5A
100
AcDbXrecord
280
     1
290
     1
  0
XRECORD
  5
4
102
{ACAD_REACTORS
330
3
102
}
330
3
100
AcDbXrecord
280
     1
340
2
  0
SORTENTSTABLE
  5
E4
102
{ACAD_REACTORS
330
3
102
}
330
3
100
AcDbSortentsTable
330
2
  0
XRECORD
  5
14
102
{ACAD_REACTORS
330
13
102
}
330
13
100
AcDbXrecord
280
     1
340
12
  0
LAYOUT
  5
17
102
{ACAD_XDICTIONARY
360
F4
102
}
102
{ACAD_REACTORS
330
10
102
}
330
10
100
AcDbPlotSettings
  1

  2
None
  4

  6

 40
0.0
 41
0.0
 42
0.0
 43
0.0
 44
0.0
 45
0.0
 46
0.0
 47
0.0
 48
0.0
 49
0.0
140
0.0
141
0.0
142
1.0
143
1.0
 70
   688
 72
     0
 73
     0
 74
     5
  7
Std pen settings.ctb
 75
    16
147
1.0
148
0.0
149
0.0
100
AcDbLayout
  1
Layout1
 70
     1
 71
     1
 10
0.0
 20
0.0
 11
420.0
 21
297.0
 12
0.0
 22
0.0
 32
0.0
 14
1.000000000000000E+20
 24
1.000000000000000E+20
 34
1.000000000000000E+20
 15
-1.000000000000000E+20
 25
-1.000000000000000E+20
 35
-1.000000000000000E+20
146
0.0
 13
0.0
 23
0.0
 33
0.0
 16
1.0
 26
0.0
 36
0.0
 17
0.0
 27
1.0
 37
0.0
 76
     0
330
12
  0
LAYOUT
  5
F
102
{ACAD_XDICTIONARY
360
F2
102
}
102
{ACAD_REACTORS
330
10
102
}
330
10
100
AcDbPlotSettings
  1

  2
none_device
  4
Letter_(8.50_x_11.00_Inches)
  6

 40
6.349999904632568
 41
6.349999904632568
 42
6.350006103515625
 43
6.350006103515625
 44
215.8999938964844
 45
279.3999938964844
 46
0.0
 47
0.0
 48
0.0
 49
0.0
140
0.0
141
0.0
142
1.0
143
190.4825914125939
 70
 11952
 72
     0
 73
     1
 74
     0
  7
Std pen settings.ctb
 75
     0
147
0.005249823580119
148
-187605.733827711
149
104251.2692448299
100
AcDbLayout
  1
Model
 70
     1
 71
     0
 10
0.0
 20
0.0
 11
12.0
 21
9.0
 12
0.0
 22
0.0
 32
0.0
 14
0.0
 24
0.0
 34
0.0
 15
0.0
 25
0.0
 35
0.0
146
0.0
 13
0.0
 23
0.0
 33
0.0
 16
1.0
 26
0.0
 36
0.0
 17
0.0
 27
1.0
 37
0.0
 76
     0
330
2
1001
ACAD_PSEXT
1000
None
1000
None
1000
Not applicable
1000
The layout will not be plotted unless a new plotter configuration name is selected.
1070
     0
  0
MLINESTYLE
  5
38
102
{ACAD_REACTORS
330
30
102
}
330
30
100
AcDbMlineStyle
  2
STANDARD
 70
     0
  3

 62
   256
 51
90.0
 52
90.0
 71
     2
 49
0.5
 62
   256
  6
BYLAYER
 49
-0.5
 62
   256
  6
BYLAYER
  0
ACDBPLACEHOLDER
  5
A
102
{ACAD_REACTORS
330
B
102
}
330
B
  0
TABLESTYLE
  5
39
102
{ACAD_XDICTIONARY
360
3A
102
}
102
{ACAD_REACTORS
330
34
102
}
330
34
100
AcDbTableStyle
  3
Standard
 70
     0
 71
     0
 40
0.06
 41
0.06
280
     0
281
     0
  7
STANDARD
140
0.18
170
     2
 62
     0
 63
     7
283
     0
274
    -2
284
     1
 64
     0
275
    -2
285
     1
 65
     0
276
    -2
286
     1
 66
     0
277
    -2
287
     1
 67
     0
278
    -2
288
     1
 68
     0
279
    -2
289
     1
 69
     0
  7
STANDARD
140
0.25
170
     5
 62
     0
 63
     7
283
     0
274
    -2
284
     1
 64
     0
275
    -2
285
     1
 65
     0
276
    -2
286
     1
 66
     0
277
    -2
287
     1
 67
     0
278
    -2
288
     1
 68
     0
279
    -2
289
     1
 69
     0
  7
STANDARD
140
0.18
170
     5
 62
     0
 63
     7
283
     0
274
    -2
284
     1
 64
     0
275
    -2
285
     1
 65
     0
276
    -2
286
     1
 66
     0
277
    -2
287
     1
 67
     0
278
    -2
288
     1
 68
     0
279
    -2
289
     1
 69
     0
  0
ACAD_PROXY_OBJECT
  5
27
102
{ACAD_REACTORS
330
28
102
}
330
28
100
AcDbProxyObject
 90
      499
 91
      512
 95
   983063
 70
     0
 93
      444
310
430C9915DA5C99599C985B59401049028333333333333E3BF0000000000000FB0107901411070040501600405405064090741402480A0340
 94
        0
1001
ACAD
1000
AcDbSavedByObjectVersion
1070
     0
1000
AcRTDxfName
1000
VISUALSTYLE
  0
DICTIONARYVAR
  5
E7
102
{ACAD_REACTORS
330
E6
102
}
330
E6
100
DictionaryVariables
280
     0
  1
STANDARD
  0
DICTIONARYVAR
  5
EE
102
{ACAD_REACTORS
330
E6
102
}
330
E6
100
DictionaryVariables
280
     0
  1
1
  0
DICTIONARYVAR
  5
ED
102
{ACAD_REACTORS
330
E6
102
}
330
E6
100
DictionaryVariables
280
     0
  1
1
  0
DICTIONARYVAR
  5
EF
102
{ACAD_REACTORS
330
E6
102
}
330
E6
100
DictionaryVariables
280
     0
  1

  0
DICTIONARY
  5
F4
330
17
100
AcDbDictionary
280
     1
281
     1
  3
ACAD_XREC_ROUNDTRIP
360
F5
  0
DICTIONARY
  5
F2
330
F
100
AcDbDictionary
280
     1
281
     1
  3
ACAD_XREC_ROUNDTRIP
360
F3
  0
DICTIONARY
  5
3A
330
39
100
AcDbDictionary
280
     1
281
     1
  3
ACAD_ROUNDTRIP_2008_TABLESTYLE_CELLSTYLEMAP
360
3B
  3
ACAD_XREC_ROUNDTRIP
360
3C
  0
XRECORD
  5
F5
102
{ACAD_REACTORS
330
F4
102
}
330
F4
100
AcDbXrecord
280
     1
102
SHADEPLOT
 70
     0
102
SHADEPLOTRESLEVEL
 70
     2
102
SHADEPLOTCUSTOMDPI
 70
   300
  0
XRECORD
  5
F3
102
{ACAD_REACTORS
330
F2
102
}
330
F2
100
AcDbXrecord
280
     1
102
SHADEPLOT
 70
     0
102
SHADEPLOTRESLEVEL
 70
     2
102
SHADEPLOTCUSTOMDPI
 70
   300
  0
ACAD_PROXY_OBJECT
  5
3B
102
{ACAD_REACTORS
330
3A
102
}
330
3A
100
AcDbProxyObject
 90
      499
 91
      518
 95
   983063
 70
     0
 93
     4020
310
40D054060020000020000003200101A412A5058000000C100000000000000340FE419019018000000C1003FBFFFFFE02B5E8DC0F42A9CFD029018000000C1003FBFFFFFE02B5E8DC0F42A9CFD049018000000C1003FBFFFFFE02B5E8DC0F42A9CFD089018000000C1003FBFFFFFE02B5E8DC0F42A9CFD109018000000C1003
310
FBFFFFFE02B5E8DC0F42A9CFD209018000000C1003FBFFFFFE02B5E8DC0F42A9CFD01405075F5449544C450041501A8000000C800406904A9416000000304000AD7A3703D0AC73F90640640600000030400FEFFFFFF80AD7A3703D0AA73F40A40600000030400FEFFFFFF80AD7A3703D0AA73F41240600000030400FEFFFFF
310
F80AD7A3703D0AA73F42240600000030400FEFFFFFF80AD7A3703D0AA73F44240600000030400FEFFFFFF80AD7A3703D0AA73F48240600000030400FEFFFFFF80AD7A3703D0AA73F409014217D2115051115480105406A0000003200101A412A5028000000C10002B5E8DC0F42B1CFE419019018000000C1003FBFFFFFE02B
310
5E8DC0F42A9CFD029018000000C1003FBFFFFFE02B5E8DC0F42A9CFD049018000000C1003FBFFFFFE02B5E8DC0F42A9CFD089018000000C1003FBFFFFFE02B5E8DC0F42A9CFD109018000000C1003FBFFFFFE02B5E8DC0F42A9CFD209018000000C1003FBFFFFFE02B5E8DC0F42A9CFD03409065F44415441000
340
1C
340
0
340
0
340
0
340
0
340
0
340
0
340
1C
340
0
340
0
340
0
340
0
340
0
340
0
340
1C
340
0
340
0
340
0
340
0
340
0
340
0
 94
        0
1001
ACAD
1000
AcRTDxfName
1000
CELLSTYLEMAP
  0
XRECORD
  5
3C
102
{ACAD_REACTORS
330
3A
102
}
330
3A
100
AcDbXrecord
280
     1
102
ACAD_ROUNDTRIP_PRE2007_TABLESTYLE
 90
        4
 91
        0
  1

 92
        4
 93
        0
  2

 94
        4
 95
        0
  3

  0
ENDSEC
  0
EOF
