  0
SECTION
  2
HEADER
  9
$ACADVER
  1
AC1018
  9
$ACADMAINTVER
 70
    39
  9
$DWGCODEPAGE
  3
ANSI_1252
  9
$INSBASE
 10
7268.838868926351
 20
-5389.680922842003
 30
0.0
  9
$EXTMIN
 10
7058.833386387125
 20
-5936.307810680666
 30
0.0
  9
$EXTMAX
 10
7823.87565232052
 20
-5293.212146781028
 30
0.0
  9
$LIMMIN
 10
0.0
 20
0.0
  9
$LIMMAX
 10
420.0
 20
297.0
  9
$ORTHOMODE
 70
     0
  9
$REGENMODE
 70
     1
  9
$FILLMODE
 70
     1
  9
$QTEXTMODE
 70
     0
  9
$MIRRTEXT
 70
     1
  9
$LTSCALE
 40
0.25
  9
$ATTMODE
 70
     1
  9
$TEXTSIZE
 40
5.0
  9
$TRACEWID
 40
10.0
  9
$TEXTSTYLE
  7
ROMANS
  9
$CLAYER
  8
ANCON-CONCRETE
  9
$CELTYPE
  6
BYLAYER
  9
$CECOLOR
 62
   256
  9
$CELTSCALE
 40
1.0
  9
$DISPSILH
 70
     0
  9
$DIMSCALE
 40
0.0
  9
$DIMASZ
 40
4.0
  9
$DIMEXO
 40
3.0
  9
$DIMDLI
 40
10.0
  9
$DIMRND
 40
0.0
  9
$DIMDLE
 40
1.25
  9
$DIMEXE
 40
3.0
  9
$DIMTP
 40
0.0
  9
$DIMTM
 40
0.0
  9
$DIMTXT
 40
3.0
  9
$DIMCEN
 40
-3.0
  9
$DIMTSZ
 40
0.0
  9
$DIMTOL
 70
     0
  9
$DIMLIM
 70
     0
  9
$DIMTIH
 70
     0
  9
$DIMTOH
 70
     0
  9
$DIMSE1
 70
     0
  9
$DIMSE2
 70
     0
  9
$DIMTAD
 70
     1
  9
$DIMZIN
 70
    12
  9
$DIMBLK
  1

  9
$DIMASO
 70
     1
  9
$DIMSHO
 70
     0
  9
$DIMPOST
  1

  9
$DIMAPOST
  1

  9
$DIMALT
 70
     0
  9
$DIMALTD
 70
     2
  9
$DIMALTF
 40
0.039
  9
$DIMLFAC
 40
1.0
  9
$DIMTOFL
 70
     0
  9
$DIMTVP
 40
1.5
  9
$DIMTIX
 70
     0
  9
$DIMSOXD
 70
     0
  9
$DIMSAH
 70
     0
  9
$DIMBLK1
  1

  9
$DIMBLK2
  1

  9
$DIMSTYLE
  2
1-2
  9
$DIMCLRD
 70
     0
  9
$DIMCLRE
 70
     0
  9
$DIMCLRT
 70
     0
  9
$DIMTFAC
 40
0.75
  9
$DIMGAP
 40
1.5
  9
$DIMJUST
 70
     0
  9
$DIMSD1
 70
     0
  9
$DIMSD2
 70
     0
  9
$DIMTOLJ
 70
     1
  9
$DIMTZIN
 70
    12
  9
$DIMALTZ
 70
    12
  9
$DIMALTTZ
 70
    12
  9
$DIMUPT
 70
     0
  9
$DIMDEC
 70
     2
  9
$DIMTDEC
 70
     2
  9
$DIMALTU
 70
     2
  9
$DIMALTTD
 70
     2
  9
$DIMTXSTY
  7
ROMANS
  9
$DIMAUNIT
 70
     0
  9
$DIMADEC
 70
     0
  9
$DIMALTRND
 40
0.0
  9
$DIMAZIN
 70
     0
  9
$DIMDSEP
 70
    46
  9
$DIMATFIT
 70
     3
  9
$DIMFRAC
 70
     0
  9
$DIMLDRBLK
  1

  9
$DIMLUNIT
 70
     2
  9
$DIMLWD
 70
    -2
  9
$DIMLWE
 70
    -2
  9
$DIMTMOVE
 70
     2
  9
$LUNITS
 70
     2
  9
$LUPREC
 70
     2
  9
$SKETCHINC
 40
1.0
  9
$FILLETRAD
 40
0.0
  9
$AUNITS
 70
     0
  9
$AUPREC
 70
     4
  9
$MENU
  1
acad
  9
$ELEVATION
 40
0.0
  9
$PELEVATION
 40
0.0
  9
$THICKNESS
 40
0.0
  9
$LIMCHECK
 70
     0
  9
$CHAMFERA
 40
0.0
  9
$CHAMFERB
 40
0.0
  9
$CHAMFERC
 40
0.0
  9
$CHAMFERD
 40
0.0
  9
$SKPOLY
 70
     0
  9
$TDCREATE
 40
2449527.571155093
  9
$TDUCREATE
 40
2449527.529488426
  9
$TDUPDATE
 40
2455075.722317882
  9
$TDUUPDATE
 40
2455075.680651216
  9
$TDINDWG
 40
0.8942793634
  9
$TDUSRTIMER
 40
0.8942793634
  9
$USRTIMER
 70
     1
  9
$ANGBASE
 50
0.0
  9
$ANGDIR
 70
     0
  9
$PDMODE
 70
     0
  9
$PDSIZE
 40
0.0
  9
$PLINEWID
 40
0.0
  9
$SPLFRAME
 70
     0
  9
$SPLINETYPE
 70
     6
  9
$SPLINESEGS
 70
     8
  9
$HANDSEED
  5
F7
  9
$SURFTAB1
 70
    18
  9
$SURFTAB2
 70
    18
  9
$SURFTYPE
 70
     6
  9
$SURFU
 70
    18
  9
$SURFV
 70
    18
  9
$UCSBASE
  2

  9
$UCSNAME
  2

  9
$UCSORG
 10
0.0
 20
0.0
 30
0.0
  9
$UCSXDIR
 10
1.0
 20
0.0
 30
0.0
  9
$UCSYDIR
 10
0.0
 20
1.0
 30
0.0
  9
$UCSORTHOREF
  2

  9
$UCSORTHOVIEW
 70
     0
  9
$UCSORGTOP
 10
0.0
 20
0.0
 30
0.0
  9
$UCSORGBOTTOM
 10
0.0
 20
0.0
 30
0.0
  9
$UCSORGLEFT
 10
0.0
 20
0.0
 30
0.0
  9
$UCSORGRIGHT
 10
0.0
 20
0.0
 30
0.0
  9
$UCSORGFRONT
 10
0.0
 20
0.0
 30
0.0
  9
$UCSORGBACK
 10
0.0
 20
0.0
 30
0.0
  9
$PUCSBASE
  2

  9
$PUCSNAME
  2

  9
$PUCSORG
 10
0.0
 20
0.0
 30
0.0
  9
$PUCSXDIR
 10
1.0
 20
0.0
 30
0.0
  9
$PUCSYDIR
 10
0.0
 20
1.0
 30
0.0
  9
$PUCSORTHOREF
  2

  9
$PUCSORTHOVIEW
 70
     0
  9
$PUCSORGTOP
 10
0.0
 20
0.0
 30
0.0
  9
$PUCSORGBOTTOM
 10
0.0
 20
0.0
 30
0.0
  9
$PUCSORGLEFT
 10
0.0
 20
0.0
 30
0.0
  9
$PUCSORGRIGHT
 10
0.0
 20
0.0
 30
0.0
  9
$PUCSORGFRONT
 10
0.0
 20
0.0
 30
0.0
  9
$PUCSORGBACK
 10
0.0
 20
0.0
 30
0.0
  9
$USERI1
 70
     0
  9
$USERI2
 70
     0
  9
$USERI3
 70
     0
  9
$USERI4
 70
     0
  9
$USERI5
 70
     0
  9
$USERR1
 40
0.0
  9
$USERR2
 40
0.0
  9
$USERR3
 40
0.0
  9
$USERR4
 40
0.0
  9
$USERR5
 40
0.0
  9
$WORLDVIEW
 70
     1
  9
$SHADEDGE
 70
     3
  9
$SHADEDIF
 70
    70
  9
$TILEMODE
 70
     1
  9
$MAXACTVP
 70
    16
  9
$PINSBASE
 10
0.0
 20
0.0
 30
0.0
  9
$PLIMCHECK
 70
     0
  9
$PEXTMIN
 10
1.000000000000000E+20
 20
1.000000000000000E+20
 30
1.000000000000000E+20
  9
$PEXTMAX
 10
-1.000000000000000E+20
 20
-1.000000000000000E+20
 30
-1.000000000000000E+20
  9
$PLIMMIN
 10
0.0
 20
0.0
  9
$PLIMMAX
 10
420.0
 20
297.0
  9
$UNITMODE
 70
     0
  9
$VISRETAIN
 70
     0
  9
$PLINEGEN
 70
     0
  9
$PSLTSCALE
 70
     1
  9
$TREEDEPTH
 70
  3020
  9
$CMLSTYLE
  2
STANDARD
  9
$CMLJUST
 70
     0
  9
$CMLSCALE
 40
1.0
  9
$PROXYGRAPHICS
 70
     1
  9
$MEASUREMENT
 70
     0
  9
$CELWEIGHT
370
    -1
  9
$ENDCAPS
280
     0
  9
$JOINSTYLE
280
     0
  9
$LWDISPLAY
290
     0
  9
$INSUNITS
 70
     0
  9
$HYPERLINKBASE
  1

  9
$STYLESHEET
  1

  9
$XEDIT
290
     1
  9
$CEPSNTYPE
380
     0
  9
$PSTYLEMODE
290
     1
  9
$FINGERPRINTGUID
  2
{07CCBDA7-CC0D-40DC-901F-040D32CFC1AB}
  9
$VERSIONGUID
  2
{232A104B-9860-43B9-BBBF-362F3B3C249E}
  9
$EXTNAMES
290
     1
  9
$PSVPSCALE
 40
0.0
  9
$OLESTARTUP
290
     0
  9
$SORTENTS
280
   127
  9
$INDEXCTL
280
     0
  9
$HIDETEXT
280
     1
  9
$XCLIPFRAME
290
     0
  9
$HALOGAP
280
     0
  9
$OBSCOLOR
 70
   257
  9
$OBSLTYPE
280
     0
  9
$INTERSECTIONDISPLAY
280
     0
  9
$INTERSECTIONCOLOR
 70
   257
  9
$DIMASSOC
280
     1
  9
$PROJECTNAME
  1

  0
ENDSEC
  0
SECTION
  2
CLASSES
  0
CLASS
  1
DICTIONARYVAR
  2
AcDbDictionaryVar
  3
ObjectDBX Classes
 90
        0
 91
        1
280
     0
281
     0
  0
CLASS
  1
LWPOLYLINE
  2
AcDbPolyline
  3
ObjectDBX Classes
 90
        0
 91
        1
280
     0
281
     1
  0
CLASS
  1
XRECORD
  2
AcDbXrecord
  3
ObjectDBX Classes
 90
        0
 91
        8
280
     0
281
     0
  0
CLASS
  1
ACDBDICTIONARYWDFLT
  2
AcDbDictionaryWithDefault
  3
ObjectDBX Classes
 90
        0
 91
        1
280
     0
281
     0
  0
CLASS
  1
ACDBPLACEHOLDER
  2
AcDbPlaceHolder
  3
ObjectDBX Classes
 90
        0
 91
        1
280
     0
281
     0
  0
CLASS
  1
LAYOUT
  2
AcDbLayout
  3
ObjectDBX Classes
 90
        0
 91
        2
280
     0
281
     0
  0
CLASS
  1
LONG_TRANSACTION
  2
AcDbLongTransaction
  3
ObjectDBX Classes
 90
        0
 91
        0
280
     0
281
     0
  0
CLASS
  1
LWPOLYLINE
  2
AcDbPolyline
  3
ObjectDBX Classes
 90
        0
 91
        1
280
     0
281
     1
  0
CLASS
  1
HATCH
  2
AcDbHatch
  3
ObjectDBX Classes
 90
        0
 91
        0
280
     0
281
     1
  0
CLASS
  1
XRECORD
  2
AcDbXrecord
  3
ObjectDBX Classes
 90
        0
 91
        8
280
     0
281
     0
  0
CLASS
  1
TABLESTYLE
  2
AcDbTableStyle
  3
ObjectDBX Classes
 90
     2047
 91
        1
280
     0
281
     0
  0
CLASS
  1
MATERIAL
  2
AcDbMaterial
  3
ObjectDBX Classes
 90
        0
 91
        0
280
     0
281
     0
  0
CLASS
  1
VISUALSTYLE
  2
AcDbVisualStyle
  3
ObjectDBX Classes
 90
     4095
 91
        2
280
     1
281
     0
  0
CLASS
  1
SCALE
  2
AcDbScale
  3
ObjectDBX Classes
 90
     1153
 91
        0
280
     1
281
     0
  0
CLASS
  1
MLEADERSTYLE
  2
AcDbMLeaderStyle
  3
ACDB_MLEADERSTYLE_CLASS
 90
     4095
 91
        0
280
     1
281
     0
  0
CLASS
  1
PLOTSETTINGS
  2
AcDbPlotSettings
  3
ObjectDBX Classes
 90
        0
 91
        0
280
     0
281
     0
  0
CLASS
  1
DIMASSOC
  2
AcDbDimAssoc
  3
"AcDbDimAssoc|Product Desc:     AcDim ARX App For Dimension|Company:          Autodesk, Inc.|WEB Address:      www.autodesk.com"
 90
        0
 91
        0
280
     0
281
     0
  0
CLASS
  1
SORTENTSTABLE
  2
AcDbSortentsTable
  3
ObjectDBX Classes
 90
        0
 91
        1
280
     0
281
     0
  0
CLASS
  1
CELLSTYLEMAP
  2
AcDbCellStyleMap
  3
ObjectDBX Classes
 90
     1152
 91
        2
280
     1
281
     0
  0
CLASS
  1
AEC_REFEDIT_STATUS_TRACKER
  2
AecDbRefEditStatusTracker
  3
AecArchBase50|Product Desc: Autodesk Architectural Desktop 2007 |Company: Autodesk,Inc. |WEB Address: www.autodesk.com
 90
      129
 91
        0
280
     1
281
     0
  0
CLASS
  1
NPOCOLLECTION
  2
AcDbImpNonPersistentObjectsCollection
  3
ObjectDBX Classes
 90
     1153
 91
        0
280
     1
281
     0
  0
ENDSEC
  0
SECTION
  2
TABLES
  0
TABLE
  2
VPORT
  5
23
102
{ACAD_XDICTIONARY
360
25
102
}
330
0
100
AcDbSymbolTable
 70
     2
  0
VPORT
  5
F6
330
23
100
AcDbSymbolTableRecord
100
AcDbViewportTableRecord
  2
*Active
 70
     0
 10
0.0
 20
0.0
 11
1.0
 21
1.0
 12
7441.354519353822
 22
-5614.759978730847
 13
0.0
 23
0.0
 14
5.0
 24
5.0
 15
10.0
 25
10.0
 16
0.0
 26
0.0
 36
1.0
 17
0.0
 27
0.0
 37
0.0
 40
653.8139249646319
 41
2.573816155988858
 42
50.0
 43
0.0
 44
0.0
 50
0.0
 51
0.0
 71
     0
 72
   100
 73
     1
 74
     1
 75
     0
 76
     0
 77
     0
 78
     1
281
     0
 65
     1
110
0.0
120
0.0
130
0.0
111
1.0
121
0.0
131
0.0
112
0.0
122
1.0
132
0.0
 79
     0
146
0.0
  0
ENDTAB
  0
TABLE
  2
LTYPE
  5
1E
330
0
100
AcDbSymbolTable
 70
     2
  0
LTYPE
  5
1F
330
1E
100
AcDbSymbolTableRecord
100
AcDbLinetypeTableRecord
  2
BYBLOCK
 70
     0
  3

 72
    65
 73
     0
 40
0.0
  0
LTYPE
  5
20
330
1E
100
AcDbSymbolTableRecord
100
AcDbLinetypeTableRecord
  2
BYLAYER
 70
     0
  3

 72
    65
 73
     0
 40
0.0
  0
LTYPE
  5
D
330
1E
100
AcDbSymbolTableRecord
100
AcDbLinetypeTableRecord
  2
CONTINUOUS
 70
     0
  3
Solid line
 72
    65
 73
     0
 40
0.0
  0
LTYPE
  5
63
330
1E
100
AcDbSymbolTableRecord
100
AcDbLinetypeTableRecord
  2
CENTER
 70
     0
  3
Center ____ _ ____ _ ____ _ ____ _ ____ _ ____
 72
    65
 73
     4
 40
50.8
 49
31.75
 74
     0
 49
-6.349999999999999
 74
     0
 49
6.349999999999999
 74
     0
 49
-6.349999999999999
 74
     0
  0
ENDTAB
  0
TABLE
  2
LAYER
  5
18
102
{ACAD_XDICTIONARY
360
19
102
}
330
0
100
AcDbSymbolTable
 70
     5
  0
LAYER
  5
7
102
{ACAD_XDICTIONARY
360
8
102
}
330
18
100
AcDbSymbolTableRecord
100
AcDbLayerTableRecord
  2
0
 70
     0
 62
     7
  6
CONTINUOUS
370
    -3
390
A
  0
LAYER
  5
35
102
{ACAD_XDICTIONARY
360
36
102
}
330
18
100
AcDbSymbolTableRecord
100
AcDbLayerTableRecord
  2
ANCON-CONCRETE
 70
     0
 62
     2
  6
CONTINUOUS
370
    -3
390
A
  0
LAYER
  5
3E
102
{ACAD_XDICTIONARY
360
3F
102
}
330
18
100
AcDbSymbolTableRecord
100
AcDbLayerTableRecord
  2
ANCON-TEXT
 70
     0
 62
     6
  6
CONTINUOUS
370
    -3
390
A
  0
LAYER
  5
60
102
{ACAD_XDICTIONARY
360
61
102
}
330
18
100
AcDbSymbolTableRecord
100
AcDbLayerTableRecord
  2
CENTRE
 70
     0
 62
     1
  6
CENTER
370
    -3
390
A
  0
LAYER
  5
65
330
18
100
AcDbSymbolTableRecord
100
AcDbLayerTableRecord
  2
ANCON-HLD
 70
     0
 62
     3
  6
CONTINUOUS
370
    -3
390
A
1001
AcAecLayerStandard
1000

1000

  0
ENDTAB
  0
TABLE
  2
STYLE
  5
1B
330
0
100
AcDbSymbolTable
 70
     2
  0
STYLE
  5
1C
330
1B
100
AcDbSymbolTableRecord
100
AcDbTextStyleTableRecord
  2
STANDARD
 70
     0
 40
0.0
 41
1.0
 50
0.0
 71
     0
 42
6.0
  3
txt.shx
  4

  0
STYLE
  5
2D
330
1B
100
AcDbSymbolTableRecord
100
AcDbTextStyleTableRecord
  2
ROMANS
 70
     0
 40
0.0
 41
1.0
 50
0.0
 71
     0
 42
5.0
  3
romans
  4

  0
ENDTAB
  0
TABLE
  2
VIEW
  5
21
330
0
100
AcDbSymbolTable
 70
     0
  0
ENDTAB
  0
TABLE
  2
UCS
  5
22
330
0
100
AcDbSymbolTable
 70
     0
  0
ENDTAB
  0
TABLE
  2
APPID
  5
2A
330
0
100
AcDbSymbolTable
 70
     3
  0
APPID
  5
29
330
2A
100
AcDbSymbolTableRecord
100
AcDbRegAppTableRecord
  2
ACAD
 70
     0
  0
APPID
  5
11
330
2A
100
AcDbSymbolTableRecord
100
AcDbRegAppTableRecord
  2
ACAD_PSEXT
 70
     0
  0
APPID
  5
66
330
2A
100
AcDbSymbolTableRecord
100
AcDbRegAppTableRecord
  2
AcAecLayerStandard
 70
     0
  0
ENDTAB
  0
TABLE
  2
DIMSTYLE
  5
2B
330
0
100
AcDbSymbolTable
 70
     1
100
AcDbDimStyleTable
 71
     1
340
2C
  0
DIMSTYLE
105
2C
330
2B
100
AcDbSymbolTableRecord
100
AcDbDimStyleTableRecord
  2
1-2
 70
     0
 40
0.0
 41
4.0
 42
3.0
 43
10.0
 44
3.0
 46
1.25
 73
     0
 74
     0
 77
     1
 78
    12
140
3.0
141
-3.0
143
0.039
145
1.5
146
0.75
147
1.5
271
     2
272
     2
279
     2
284
    12
285
    12
286
    12
340
2D
  0
ENDTAB
  0
TABLE
  2
BLOCK_RECORD
  5
1
330
0
100
AcDbSymbolTable
 70
     0
  0
BLOCK_RECORD
  5
2
102
{ACAD_XDICTIONARY
360
3
102
}
330
1
100
AcDbSymbolTableRecord
100
AcDbBlockTableRecord
  2
*MODEL_SPACE
340
F
  0
BLOCK_RECORD
  5
12
102
{ACAD_XDICTIONARY
360
13
102
}
330
1
100
AcDbSymbolTableRecord
100
AcDbBlockTableRecord
  2
*PAPER_SPACE
340
17
  0
ENDTAB
  0
ENDSEC
  0
SECTION
  2
BLOCKS
  0
BLOCK
  5
6
330
2
100
AcDbEntity
  8
0
100
AcDbBlockBegin
  2
*MODEL_SPACE
 70
     0
 10
0.0
 20
0.0
 30
0.0
  3
*MODEL_SPACE
  1

  0
ENDBLK
  5
E
330
2
100
AcDbEntity
  8
0
100
AcDbBlockEnd
  0
BLOCK
  5
15
330
12
100
AcDbEntity
 67
     1
  8
0
100
AcDbBlockBegin
  2
*PAPER_SPACE
 70
     0
 10
0.0
 20
0.0
 30
0.0
  3
*PAPER_SPACE
  1

  0
ENDBLK
  5
16
330
12
100
AcDbEntity
 67
     1
  8
0
100
AcDbBlockEnd
  0
ENDSEC
  0
SECTION
  2
ENTITIES
  0
LINE
  5
3D
330
2
100
AcDbEntity
  8
ANCON-TEXT
100
AcDbLine
 10
7294.363295444385
 20
-5851.390392321241
 30
0.0
 11
7294.363295444385
 21
-5904.488638455333
 31
0.0
  0
TEXT
  5
41
330
2
100
AcDbEntity
  8
ANCON-TEXT
100
AcDbText
 10
7256.441510435981
 20
-5893.673081362235
 30
0.0
 40
5.0
  1
???
  7
ROMANS
 72
     4
 11
7262.870081864552
 21
-5891.173081362236
 31
0.0
100
AcDbText
  0
LINE
  5
42
330
2
100
AcDbEntity
  8
ANCON-TEXT
100
AcDbLine
 10
7229.492711309585
 20
-5851.390392321241
 30
0.0
 11
7229.492711309585
 21
-5904.488638455333
 31
0.0
  0
TEXT
  5
43
330
2
100
AcDbEntity
  8
ANCON-TEXT
100
AcDbText
 10
7235.012939007408
 20
-5861.651277983651
 30
0.0
 40
5.0
  1
SERVICEABILITY
  7
ROMANS
 72
     4
 11
7262.870081864552
 21
-5859.151277983651
 31
0.0
100
AcDbText
  0
TEXT
  5
44
330
2
100
AcDbEntity
  8
ANCON-TEXT
100
AcDbText
 10
7238.108177102647
 20
-5872.59455692223
 30
0.0
 40
5.0
  1
LOAD ( kN )
  7
ROMANS
 72
     4
 11
7262.870081864552
 21
-5870.451699779373
 31
0.0
100
AcDbText
  0
LINE
  5
45
330
2
100
AcDbEntity
  8
ANCON-TEXT
100
AcDbLine
 10
7168.984617752524
 20
-5851.390392321241
 30
0.0
 11
7168.984617752524
 21
-5904.488638455333
 31
0.0
  0
TEXT
  5
46
330
2
100
AcDbEntity
  8
ANCON-TEXT
100
AcDbText
 10
7126.415097139688
 20
-5861.656108480783
 30
0.0
 40
5.0
  1
HLD REF:
  7
ROMANS
 72
     4
 11
7144.153192377785
 21
-5859.156108480783
 31
0.0
100
AcDbText
  0
TEXT
  5
47
330
2
100
AcDbEntity
  8
ANCON-TEXT
100
AcDbText
 10
7122.631986626458
 20
-5893.43498612414
 30
0.0
 40
5.0
  1
HLD-Q 30
  7
ROMANS
 72
     4
 11
7142.870081864552
 21
-5891.173081362236
 31
0.0
100
AcDbText
  0
LINE
  5
48
330
2
100
AcDbEntity
  8
ANCON-TEXT
100
AcDbLine
 10
7118.984617752524
 20
-5851.390392321241
 30
0.0
 11
7118.984617752524
 21
-5904.488638455333
 31
0.0
  0
LINE
  5
49
330
2
100
AcDbEntity
  8
ANCON-TEXT
100
AcDbLine
 10
7118.984617752524
 20
-5904.488638455333
 30
0.0
 11
7294.363295444385
 21
-5904.488638455333
 31
0.0
  0
LINE
  5
4A
330
2
100
AcDbEntity
  8
ANCON-TEXT
100
AcDbLine
 10
7118.984617752524
 20
-5877.461153380288
 30
0.0
 11
7294.363295444385
 21
-5877.461153380288
 31
0.0
  0
LINE
  5
4B
330
2
100
AcDbEntity
  8
ANCON-TEXT
100
AcDbLine
 10
7118.984617752524
 20
-5851.390392321241
 30
0.0
 11
7294.363295444385
 21
-5851.390392321241
 31
0.0
  0
TEXT
  5
4C
330
2
100
AcDbEntity
  8
ANCON-TEXT
100
AcDbText
 10
7174.088286117411
 20
-5861.656108480783
 30
0.0
 40
5.0
  1
DESIGN JOINT
  7
ROMANS
 72
     4
 11
7200.15971468884
 21
-5859.156108480783
 31
0.0
100
AcDbText
  0
TEXT
  5
4D
330
2
100
AcDbEntity
  8
ANCON-TEXT
100
AcDbText
 10
7190.489129483601
 20
-5893.673081362235
 30
0.0
 40
5.0
  1
?? MM
  7
ROMANS
 72
     4
 11
7202.870081864552
 21
-5891.173081362236
 31
0.0
100
AcDbText
  0
TEXT
  5
4E
330
2
100
AcDbEntity
  8
ANCON-TEXT
100
AcDbText
 10
7189.564476593601
 20
-5872.553731868402
 30
0.0
 40
5.0
  1
WIDTH
  7
ROMANS
 72
     4
 11
7200.15971468884
 21
-5870.053731868402
 31
0.0
100
AcDbText
  0
LINE
  5
4F
330
2
100
AcDbEntity
  8
ANCON-TEXT
100
AcDbLine
 10
7633.34679080218
 20
-5883.274118095116
 30
0.0
 11
7633.34679080218
 21
-5936.307810680666
 31
0.0
  0
LINE
  5
50
330
2
100
AcDbEntity
  8
ANCON-TEXT
100
AcDbLine
 10
7501.954393207507
 20
-5853.907604428022
 30
0.0
 11
7501.954393207507
 21
-5865.825579720024
 31
0.0
  0
LINE
  5
51
330
2
100
AcDbEntity
  8
ANCON-TEXT
100
AcDbLine
 10
7428.629549469417
 20
-5853.907604428022
 30
0.0
 11
7428.629549469417
 21
-5865.825579720024
 31
0.0
  0
LINE
  5
52
330
2
100
AcDbEntity
  8
ANCON-TEXT
100
AcDbLine
 10
7430.859840695539
 20
-5883.274118095116
 30
0.0
 11
7430.859840695539
 21
-5936.307810680666
 31
0.0
  0
TEXT
  5
53
330
2
100
AcDbEntity
  8
ANCON-TEXT
100
AcDbText
 10
7436.129302180674
 20
-5932.604760249237
 30
0.0
 40
5.0
  1
LOAD OF ??? kN
  7
ROMANS
 72
     4
 11
7468.748349799722
 21
-5930.104760249237
 31
0.0
100
AcDbText
  0
LINE
  5
54
330
2
100
AcDbEntity
  8
ANCON-TEXT
100
AcDbLine
 10
7428.629549469417
 20
-5853.907604428022
 30
0.0
 11
7501.954393207507
 21
-5853.907604428022
 31
0.0
  0
LINE
  5
55
330
2
100
AcDbEntity
  8
ANCON-TEXT
100
AcDbLine
 10
7428.629549469417
 20
-5865.825579720024
 30
0.0
 11
7501.954393207507
 21
-5865.825579720024
 31
0.0
  0
TEXT
  5
56
330
2
100
AcDbEntity
  8
ANCON-TEXT
100
AcDbText
 10
7429.996807511789
 20
-5862.306619305769
 30
0.0
 40
5.0
  1
ANCON HLD-Q 30
  7
ROMANS
 72
     4
 11
7464.877759892741
 21
-5860.044714543865
 31
0.0
100
AcDbText
  0
TEXT
  5
57
330
2
100
AcDbEntity
  8
ANCON-TEXT
100
AcDbText
 10
7303.431105014253
 20
-5892.479169008361
 30
0.0
 40
5.0
  1
SPECIFICATION BY DESCRIPTION
  7
ROMANS
 72
     4
 11
7363.073962157111
 21
-5889.979169008361
 31
0.0
100
AcDbText
  0
TEXT
  5
58
330
2
100
AcDbEntity
  8
ANCON-TEXT
100
AcDbText
 10
7303.287468404626
 20
-5862.544714543865
 30
0.0
 40
5.0
  1
SPECIFICATION BY PRODUCT
  7
ROMANS
 72
     4
 11
7356.739849357007
 21
-5860.044714543865
 31
0.0
100
AcDbText
  0
TEXT
  5
59
330
2
100
AcDbEntity
  8
ANCON-TEXT
100
AcDbText
 10
7435.151573900379
 20
-5892.514917634886
 30
0.0
 40
5.0
  1
TWO PART STAINLESS STEEL SHEAR CONNECTOR
  7
ROMANS
 72
     4
 11
7527.770621519427
 21
-5890.014917634886
 31
0.0
100
AcDbText
  0
TEXT
  5
5A
330
2
100
AcDbEntity
  8
ANCON-TEXT
100
AcDbText
 10
7434.430389494322
 20
-5902.619629960677
 30
0.0
 40
5.0
  1
COMPRISING SLEEVE AND DOWEL COMPONENT
  7
ROMANS
 72
     4
 11
7522.406579970513
 21
-5900.119629960676
 31
0.0
100
AcDbText
  0
TEXT
  5
5B
330
2
100
AcDbEntity
  8
ANCON-TEXT
100
AcDbText
 10
7434.943521424331
 20
-5922.569835084274
 30
0.0
 40
5.0
  1
AND CAPABLE OF TRANSFERRING A SERVICEABILITY
  7
ROMANS
 72
     4
 11
7532.324473805283
 21
-5920.069835084275
 31
0.0
100
AcDbText
  0
LINE
  5
5C
330
2
100
AcDbEntity
  8
ANCON-TEXT
100
AcDbLine
 10
7430.859840695539
 20
-5936.307810680666
 30
0.0
 11
7633.34679080218
 21
-5936.307810680666
 31
0.0
  0
LINE
  5
5D
330
2
100
AcDbEntity
  8
ANCON-TEXT
100
AcDbLine
 10
7430.859840695539
 20
-5883.274118095116
 30
0.0
 11
7633.34679080218
 21
-5883.274118095116
 31
0.0
  0
TEXT
  5
5E
330
2
100
AcDbEntity
  8
ANCON-TEXT
100
AcDbText
 10
7434.48908625438
 20
-5912.520777670346
 30
0.0
 40
5.0
  1
SUITABLE FOR A DESIGN JOINT WIDTH OF ?? MM
  7
ROMANS
 72
     4
 11
7529.370038635332
 21
-5910.020777670347
 31
0.0
100
AcDbText
  0
LINE
  5
5F
330
2
100
AcDbEntity
  8
CENTRE
 48
0.5
100
AcDbLine
 10
7475.114709767557
 20
-5389.680922842003
 30
0.0
 11
7272.39316179838
 21
-5389.680922842003
 31
0.0
  0
LINE
  5
64
330
2
100
AcDbEntity
  8
ANCON-HLD
100
AcDbLine
 10
7478.83886892635
 20
-5616.4502171778
 30
0.0
 11
7478.83886892635
 21
-5696.701201835873
 31
0.0
  0
LINE
  5
67
330
2
100
AcDbEntity
  8
ANCON-HLD
100
AcDbLine
 10
7481.83886892635
 20
-5696.701201835873
 30
0.0
 11
7388.518161798379
 21
-5696.701201835873
 31
0.0
  0
LINE
  5
68
330
2
100
AcDbEntity
  8
ANCON-HLD
100
AcDbLine
 10
7388.518161798379
 20
-5616.4502171778
 30
0.0
 11
7481.83886892635
 21
-5616.4502171778
 31
0.0
  0
LINE
  5
69
330
2
100
AcDbEntity
  8
ANCON-HLD
100
AcDbLine
 10
7388.518161798379
 20
-5369.680922842002
 30
0.0
 11
7481.838868926351
 21
-5369.680922842002
 31
0.0
  0
LINE
  5
6A
330
2
100
AcDbEntity
  8
ANCON-HLD
100
AcDbLine
 10
7388.518161798379
 20
-5409.680922842004
 30
0.0
 11
7481.838868926351
 21
-5409.680922842004
 31
0.0
  0
CIRCLE
  5
6B
330
2
100
AcDbEntity
  8
ANCON-HLD
100
AcDbCircle
 10
7719.813152320519
 20
-5389.680922842003
 30
0.0
 40
17.5
  0
CIRCLE
  5
6C
330
2
100
AcDbEntity
  8
ANCON-HLD
100
AcDbCircle
 10
7719.813152320519
 20
-5389.680922842003
 30
0.0
 40
15.5
  0
LINE
  5
6D
330
2
100
AcDbEntity
  8
ANCON-HLD
100
AcDbLine
 10
7684.31315232052
 20
-5369.680922842002
 30
0.0
 11
7755.313152320519
 21
-5369.680922842002
 31
0.0
  0
LINE
  5
6E
330
2
100
AcDbEntity
  8
ANCON-HLD
100
AcDbLine
 10
7684.31315232052
 20
-5409.680922842004
 30
0.0
 11
7755.313152320519
 21
-5409.680922842004
 31
0.0
  0
LINE
  5
6F
330
2
100
AcDbEntity
  8
ANCON-HLD
100
AcDbLine
 10
7684.31315232052
 20
-5371.680922842003
 30
0.0
 11
7755.313152320519
 21
-5371.680922842003
 31
0.0
  0
LINE
  5
70
330
2
100
AcDbEntity
  8
ANCON-HLD
100
AcDbLine
 10
7684.31315232052
 20
-5407.680922842002
 30
0.0
 11
7755.313152320519
 21
-5407.680922842002
 31
0.0
  0
LINE
  5
71
330
2
100
AcDbEntity
  8
ANCON-HLD
100
AcDbLine
 10
7679.813152320519
 20
-5405.180922842004
 30
0.0
 11
7679.813152320519
 21
-5374.180922842002
 31
0.0
  0
LINE
  5
72
330
2
100
AcDbEntity
  8
ANCON-HLD
100
AcDbLine
 10
7681.813152320519
 20
-5405.180922842004
 30
0.0
 11
7681.813152320519
 21
-5374.180922842002
 31
0.0
  0
ARC
  5
73
330
2
100
AcDbEntity
  8
ANCON-HLD
100
AcDbCircle
 10
7684.31315232052
 20
-5405.180922842004
 30
0.0
 40
4.5
100
AcDbArc
 50
180.0
 51
270.0
  0
ARC
  5
74
330
2
100
AcDbEntity
  8
ANCON-HLD
100
AcDbCircle
 10
7684.31315232052
 20
-5405.180922842004
 30
0.0
 40
2.5
100
AcDbArc
 50
180.0
 51
270.0
  0
ARC
  5
75
330
2
100
AcDbEntity
  8
ANCON-HLD
100
AcDbCircle
 10
7684.31315232052
 20
-5374.180922842002
 30
0.0
 40
4.5
100
AcDbArc
 50
90.0
 51
180.0
  0
ARC
  5
76
330
2
100
AcDbEntity
  8
ANCON-HLD
100
AcDbCircle
 10
7684.31315232052
 20
-5374.180922842002
 30
0.0
 40
2.5
100
AcDbArc
 50
90.0
 51
180.0
  0
LINE
  5
77
330
2
100
AcDbEntity
  8
ANCON-HLD
100
AcDbLine
 10
7759.81315232052
 20
-5405.180922842004
 30
0.0
 11
7759.81315232052
 21
-5374.180922842002
 31
0.0
  0
LINE
  5
78
330
2
100
AcDbEntity
  8
ANCON-HLD
100
AcDbLine
 10
7757.81315232052
 20
-5405.180922842004
 30
0.0
 11
7757.81315232052
 21
-5374.180922842002
 31
0.0
  0
ARC
  5
79
330
2
100
AcDbEntity
  8
ANCON-HLD
100
AcDbCircle
 10
7755.313152320519
 20
-5405.180922842004
 30
0.0
 40
4.5
100
AcDbArc
 50
270.0
 51
0.0
  0
ARC
  5
7A
330
2
100
AcDbEntity
  8
ANCON-HLD
100
AcDbCircle
 10
7755.313152320519
 20
-5405.180922842004
 30
0.0
 40
2.5
100
AcDbArc
 50
270.0
 51
0.0
  0
ARC
  5
7B
330
2
100
AcDbEntity
  8
ANCON-HLD
100
AcDbCircle
 10
7755.313152320519
 20
-5374.180922842002
 30
0.0
 40
4.5
100
AcDbArc
 50
0.0
 51
90.0
  0
ARC
  5
7C
330
2
100
AcDbEntity
  8
ANCON-HLD
100
AcDbCircle
 10
7755.313152320519
 20
-5374.180922842002
 30
0.0
 40
2.5
100
AcDbArc
 50
0.0
 51
90.0
  0
LINE
  5
7D
330
2
100
AcDbEntity
  8
ANCON-HLD
100
AcDbLine
 10
7268.838868926351
 20
-5748.9756795177
 30
0.0
 11
7268.838868926351
 21
-5563.9756795177
 31
0.0
  0
LINE
  5
7E
330
2
100
AcDbEntity
  8
ANCON-HLD
100
AcDbLine
 10
7388.518161798379
 20
-5736.9756795177
 30
0.0
 11
7388.518161798379
 21
-5575.9756795177
 31
0.0
  0
LINE
  5
7F
330
2
100
AcDbEntity
  8
ANCON-HLD
100
AcDbLine
 10
7272.838868926349
 20
-5736.9756795177
 30
0.0
 11
7388.518161798379
 21
-5736.9756795177
 31
0.0
  0
LINE
  5
80
330
2
100
AcDbEntity
  8
ANCON-HLD
100
AcDbLine
 10
7268.838868926351
 20
-5748.9756795177
 30
0.0
 11
7272.838868926349
 21
-5748.9756795177
 31
0.0
  0
LINE
  5
81
330
2
100
AcDbEntity
  8
ANCON-HLD
100
AcDbLine
 10
7272.838868926349
 20
-5575.9756795177
 30
0.0
 11
7388.518161798379
 21
-5575.9756795177
 31
0.0
  0
LINE
  5
82
330
2
100
AcDbEntity
  8
ANCON-HLD
100
AcDbLine
 10
7268.838868926351
 20
-5563.9756795177
 30
0.0
 11
7272.838868926349
 21
-5563.9756795177
 31
0.0
  0
LINE
  5
83
330
2
100
AcDbEntity
  8
ANCON-HLD
100
AcDbLine
 10
7272.838868926349
 20
-5748.9756795177
 30
0.0
 11
7272.838868926349
 21
-5563.9756795177
 31
0.0
  0
LINE
  5
84
330
2
100
AcDbEntity
  8
ANCON-HLD
100
AcDbLine
 10
7800.313152320519
 20
-5319.680922842004
 30
0.0
 11
7737.313152320519
 21
-5319.680922842004
 31
0.0
  0
LINE
  5
85
330
2
100
AcDbEntity
  8
ANCON-HLD
100
AcDbLine
 10
7639.31315232052
 20
-5459.680916882517
 30
0.0
 11
7639.31315232052
 21
-5441.180922842002
 31
0.0
  0
LINE
  5
86
330
2
100
AcDbEntity
  8
ANCON-HLD
100
AcDbLine
 10
7800.313152320519
 20
-5459.680916882517
 30
0.0
 11
7800.313152320519
 21
-5441.180922842002
 31
0.0
  0
LINE
  5
87
330
2
100
AcDbEntity
  8
ANCON-HLD
100
AcDbLine
 10
7268.838868926351
 20
-5441.180922842002
 30
0.0
 11
7272.838868926349
 21
-5441.180922842002
 31
0.0
  0
LINE
  5
88
330
2
100
AcDbEntity
  8
ANCON-HLD
100
AcDbLine
 10
7272.838868926349
 20
-5338.180922842003
 30
0.0
 11
7272.838868926349
 21
-5441.180922842002
 31
0.0
  0
LINE
  5
89
330
2
100
AcDbEntity
  8
ANCON-HLD
100
AcDbLine
 10
7268.838868926351
 20
-5338.180922842003
 30
0.0
 11
7268.838868926351
 21
-5441.180922842002
 31
0.0
  0
LINE
  5
8A
330
2
100
AcDbEntity
  8
ANCON-HLD
100
AcDbLine
 10
7268.838868926351
 20
-5338.180922842003
 30
0.0
 11
7272.838868926349
 21
-5338.180922842003
 31
0.0
  0
LINE
  5
8B
330
2
100
AcDbEntity
  8
ANCON-HLD
100
AcDbLine
 10
7812.313152320519
 20
-5338.180922842003
 30
0.0
 11
7627.313152320519
 21
-5338.180922842004
 31
0.0
  0
LINE
  5
8C
330
2
100
AcDbEntity
  8
ANCON-HLD
100
AcDbLine
 10
7812.313152320519
 20
-5441.180922842002
 30
0.0
 11
7627.313152320519
 21
-5441.180922842002
 31
0.0
  0
LINE
  5
8D
330
2
100
AcDbEntity
  8
ANCON-HLD
100
AcDbLine
 10
7627.313152320519
 20
-5441.180922842002
 30
0.0
 11
7627.313152320519
 21
-5338.180922842004
 31
0.0
  0
LINE
  5
8E
330
2
100
AcDbEntity
  8
ANCON-HLD
100
AcDbLine
 10
7812.313152320519
 20
-5441.180922842002
 30
0.0
 11
7812.313152320519
 21
-5338.180922842003
 31
0.0
  0
LINE
  5
8F
330
2
100
AcDbEntity
  8
ANCON-HLD
100
AcDbLine
 10
7639.31315232052
 20
-5338.180922842003
 30
0.0
 11
7639.31315232052
 21
-5319.680922842004
 31
0.0
  0
LINE
  5
90
330
2
100
AcDbEntity
  8
ANCON-HLD
100
AcDbLine
 10
7800.313152320519
 20
-5338.180922842003
 30
0.0
 11
7800.313152320519
 21
-5319.680922842004
 31
0.0
  0
LINE
  5
91
330
2
100
AcDbEntity
  8
CENTRE
 48
0.125
100
AcDbLine
 10
7812.313152320519
 20
-5343.180922842003
 30
0.0
 11
7802.313152320519
 21
-5343.180922842003
 31
0.0
  0
CIRCLE
  5
92
330
2
100
AcDbEntity
  8
ANCON-HLD
100
AcDbCircle
 10
7807.313152320519
 20
-5343.180922842003
 30
0.0
 40
2.5
  0
LINE
  5
93
330
2
100
AcDbEntity
  8
CENTRE
 48
0.125
100
AcDbLine
 10
7807.313152320519
 20
-5338.180922842003
 30
0.0
 11
7807.313152320519
 21
-5348.180922842002
 31
0.0
  0
LINE
  5
94
330
2
100
AcDbEntity
  8
CENTRE
 48
0.125
100
AcDbLine
 10
7812.313152320519
 20
-5436.180922842003
 30
0.0
 11
7802.313152320519
 21
-5436.180922842003
 31
0.0
  0
CIRCLE
  5
95
330
2
100
AcDbEntity
  8
ANCON-HLD
100
AcDbCircle
 10
7807.313152320519
 20
-5436.180922842003
 30
0.0
 40
2.5
  0
LINE
  5
96
330
2
100
AcDbEntity
  8
CENTRE
 48
0.125
100
AcDbLine
 10
7807.313152320519
 20
-5431.180922842003
 30
0.0
 11
7807.313152320519
 21
-5441.180922842002
 31
0.0
  0
CIRCLE
  5
97
330
2
100
AcDbEntity
  8
ANCON-HLD
100
AcDbCircle
 10
7632.313152320519
 20
-5343.180922842003
 30
0.0
 40
2.5
  0
LINE
  5
98
330
2
100
AcDbEntity
  8
CENTRE
 48
0.125
100
AcDbLine
 10
7637.313152320519
 20
-5343.180922842003
 30
0.0
 11
7627.313152320519
 21
-5343.180922842003
 31
0.0
  0
LINE
  5
99
330
2
100
AcDbEntity
  8
CENTRE
 48
0.125
100
AcDbLine
 10
7632.313152320519
 20
-5338.180922842003
 30
0.0
 11
7632.313152320519
 21
-5348.180922842002
 31
0.0
  0
LINE
  5
9A
330
2
100
AcDbEntity
  8
CENTRE
 48
0.125
100
AcDbLine
 10
7637.313152320519
 20
-5436.180922842003
 30
0.0
 11
7627.313152320519
 21
-5436.180922842003
 31
0.0
  0
LINE
  5
9B
330
2
100
AcDbEntity
  8
CENTRE
 48
0.125
100
AcDbLine
 10
7632.313152320519
 20
-5431.180922842003
 30
0.0
 11
7632.313152320519
 21
-5441.180922842002
 31
0.0
  0
CIRCLE
  5
9C
330
2
100
AcDbEntity
  8
ANCON-HLD
100
AcDbCircle
 10
7632.313152320519
 20
-5436.180922842003
 30
0.0
 40
2.5
  0
CIRCLE
  5
9D
330
2
100
AcDbEntity
  8
ANCON-HLD
100
AcDbCircle
 10
7328.518161798379
 20
-5656.475679517701
 30
0.0
 40
17.5
  0
LINE
  5
9E
330
2
100
AcDbEntity
  8
ANCON-HLD
100
AcDbLine
 10
7481.83886892635
 20
-5616.4502171778
 30
0.0
 11
7481.83886892635
 21
-5696.701201835873
 31
0.0
  0
LINE
  5
9F
330
2
100
AcDbEntity
  8
ANCON-HLD
100
AcDbLine
 10
7481.838868926351
 20
-5369.680922842002
 30
0.0
 11
7481.838868926351
 21
-5409.680922842004
 31
0.0
  0
LINE
  5
A0
330
2
100
AcDbEntity
  8
ANCON-HLD
100
AcDbLine
 10
7478.83886892635
 20
-5369.680922842002
 30
0.0
 11
7478.838868926351
 21
-5409.680922842004
 31
0.0
  0
LINE
  5
A1
330
2
100
AcDbEntity
  8
ANCON-HLD
100
AcDbLine
 10
7272.838868926349
 20
-5369.680922842002
 30
0.0
 11
7384.518161798379
 21
-5369.680922842002
 31
0.0
  0
LINE
  5
A2
330
2
100
AcDbEntity
  8
CENTRE
 48
0.5
100
AcDbLine
 10
7615.75065232052
 20
-5389.680922842003
 30
0.0
 11
7823.87565232052
 21
-5389.680922842003
 31
0.0
  0
LINE
  5
A3
330
2
100
AcDbEntity
  8
CENTRE
 48
0.5
100
AcDbLine
 10
7719.813152320519
 20
-5467.635695646894
 30
0.0
 11
7719.813152320519
 21
-5309.185533110053
 31
0.0
  0
LINE
  5
A4
330
2
100
AcDbEntity
  8
CENTRE
 48
0.125
100
AcDbLine
 10
7264.83886892635
 20
-5568.9756795177
 30
0.0
 11
7276.838868926351
 21
-5568.9756795177
 31
0.0
  0
LINE
  5
A5
330
2
100
AcDbEntity
  8
CENTRE
 48
0.125
100
AcDbLine
 10
7264.83886892635
 20
-5743.9756795177
 30
0.0
 11
7276.838868926351
 21
-5743.9756795177
 31
0.0
  0
LINE
  5
A6
330
2
100
AcDbEntity
  8
CENTRE
 48
0.125
100
AcDbLine
 10
7264.83886892635
 20
-5436.180922842003
 30
0.0
 11
7276.838868926351
 21
-5436.180922842003
 31
0.0
  0
LINE
  5
A7
330
2
100
AcDbEntity
  8
CENTRE
 48
0.125
100
AcDbLine
 10
7264.83886892635
 20
-5343.180922842003
 30
0.0
 11
7276.838868926351
 21
-5343.180922842003
 31
0.0
  0
LINE
  5
A8
330
2
100
AcDbEntity
  8
CENTRE
 48
0.5
100
AcDbLine
 10
7252.877488170951
 20
-5656.475679517701
 30
0.0
 11
7493.194792991862
 21
-5656.475679517701
 31
0.0
  0
LINE
  5
A9
330
2
100
AcDbEntity
  8
CENTRE
 48
0.5
100
AcDbLine
 10
7328.518161798378
 20
-5678.3506795177
 30
0.0
 11
7328.518161798379
 21
-5634.6006795177
 31
0.0
  0
LINE
  5
AA
330
2
100
AcDbEntity
  8
CENTRE
 48
0.5
100
AcDbLine
 10
7318.83886892635
 20
-5395.680922842003
 30
0.0
 11
7318.83886892635
 21
-5383.680922842002
 31
0.0
  0
LINE
  5
AB
330
2
100
AcDbEntity
  8
ANCON-HLD
100
AcDbLine
 10
7272.838868926349
 20
-5409.680922842004
 30
0.0
 11
7384.518161798379
 21
-5409.680922842004
 31
0.0
  0
LINE
  5
AC
330
2
100
AcDbEntity
  8
CENTRE
 48
0.5
100
AcDbLine
 10
7248.656969598272
 20
-5389.680922842003
 30
0.0
 11
7502.217029812827
 21
-5389.680922842003
 31
0.0
  0
LINE
  5
AD
330
2
100
AcDbEntity
  8
ANCON-HLD
100
AcDbLine
 10
7388.518161798379
 20
-5360.016128893621
 30
0.0
 11
7388.518161798379
 21
-5419.345716790387
 31
0.0
  0
LINE
  5
AE
330
2
100
AcDbEntity
  8
ANCON-HLD
100
AcDbLine
 10
7384.518161798379
 20
-5360.016128893621
 30
0.0
 11
7384.518161798379
 21
-5419.345716790387
 31
0.0
  0
ARC
  5
AF
330
2
100
AcDbEntity
  8
ANCON-HLD
100
AcDbCircle
 10
7328.518161798379
 20
-5389.680922842004
 30
0.0
 40
66.0
100
AcDbArc
 50
37.25791600132164
 51
142.6947990341966
  0
ARC
  5
B0
330
2
100
AcDbEntity
  8
ANCON-HLD
100
AcDbCircle
 10
7328.518161798379
 20
-5389.680922842004
 30
0.0
 40
66.0
100
AcDbArc
 50
217.3052009657994
 51
322.7420839986784
  0
ARC
  5
B1
330
2
100
AcDbEntity
  8
ANCON-HLD
100
AcDbCircle
 10
7367.518161798379
 20
-5419.345716790387
 30
0.0
 40
17.0
100
AcDbArc
 50
322.7420839986784
 51
0.0
  0
ARC
  5
B2
330
2
100
AcDbEntity
  8
ANCON-HLD
100
AcDbCircle
 10
7328.518161798379
 20
-5389.680922842004
 30
0.0
 40
70.0
100
AcDbArc
 50
37.25791600132164
 51
142.6947990341966
  0
ARC
  5
B3
330
2
100
AcDbEntity
  8
ANCON-HLD
100
AcDbCircle
 10
7328.518161798379
 20
-5389.680922842004
 30
0.0
 40
70.0
100
AcDbArc
 50
217.3052009657994
 51
322.7420839986784
  0
ARC
  5
B4
330
2
100
AcDbEntity
  8
ANCON-HLD
100
AcDbCircle
 10
7367.518161798379
 20
-5419.345716790387
 30
0.0
 40
21.0
100
AcDbArc
 50
322.7420839986784
 51
0.0
  0
ARC
  5
B5
330
2
100
AcDbEntity
  8
ANCON-HLD
100
AcDbCircle
 10
7367.518161798378
 20
-5360.016128893621
 30
0.0
 40
21.0
100
AcDbArc
 50
0.0
 51
37.25791600132164
  0
LINE
  5
B6
330
2
100
AcDbEntity
  8
ANCON-HLD
100
AcDbLine
 10
7276.020542804753
 20
-5429.680922842004
 30
0.0
 11
7272.838868926349
 21
-5432.105165266246
 31
0.0
  0
LINE
  5
B7
330
2
100
AcDbEntity
  8
ANCON-HLD
100
AcDbLine
 10
7276.020542804753
 20
-5349.680922842004
 30
0.0
 11
7272.838868926349
 21
-5347.256680417762
 31
0.0
  0
ARC
  5
B8
330
2
100
AcDbEntity
  8
ANCON-HLD
100
AcDbCircle
 10
7367.518161798379
 20
-5360.016128893621
 30
0.0
 40
17.0
100
AcDbArc
 50
0.0
 51
37.25791600132164
  0
LINE
  5
B9
330
2
100
AcDbEntity
  8
ANCON-HLD
100
AcDbLine
 10
7702.313152320519
 20
-5319.680922842004
 30
0.0
 11
7639.31315232052
 21
-5319.680922842004
 31
0.0
  0
ELLIPSE
  5
BA
330
2
100
AcDbEntity
  8
ANCON-HLD
100
AcDbEllipse
 10
7719.813152320519
 20
-5319.680922842004
 30
0.0
 11
-17.5
 21
0.0
 31
0.0
210
0.0
220
0.0
230
1.0
 40
0.1317316040951742
 41
0.0
 42
3.141592653589793
  0
ELLIPSE
  5
BB
330
2
100
AcDbEntity
  8
ANCON-HLD
100
AcDbEllipse
 10
7719.813152320519
 20
-5459.680922842
 30
0.0
 11
-17.5
 21
0.0
 31
0.0
210
0.0
220
0.0
230
-1.0
 40
0.1317316040951742
 41
0.0
 42
3.141592653589793
  0
LINE
  5
BC
330
2
100
AcDbEntity
  8
ANCON-HLD
100
AcDbLine
 10
7702.313152320519
 20
-5459.680922842
 30
0.0
 11
7639.31315232052
 21
-5459.680922842003
 31
0.0
  0
LINE
  5
BD
330
2
100
AcDbEntity
  8
ANCON-HLD
100
AcDbLine
 10
7800.313152320519
 20
-5459.680922842003
 30
0.0
 11
7737.313152320519
 21
-5459.680922842
 31
0.0
  0
ARC
  5
BE
330
2
100
AcDbEntity
  8
ANCON-HLD
100
AcDbCircle
 10
7318.83886892635
 20
-5389.680922842003
 30
0.0
 40
1.5
100
AcDbArc
 50
283.5380585126378
 51
301.3119961174291
  0
ARC
  5
BF
330
2
100
AcDbEntity
  8
ANCON-HLD
100
AcDbCircle
 10
7318.83886892635
 20
-5389.680922842003
 30
0.0
 40
1.5
100
AcDbArc
 50
328.3881131426551
 51
346.4619414873891
  0
ARC
  5
C0
330
2
100
AcDbEntity
  8
ANCON-HLD
100
AcDbCircle
 10
7318.83886892635
 20
-5389.680922842003
 30
0.0
 40
1.5
100
AcDbArc
 50
13.53805851261097
 51
31.31199611738777
  0
ARC
  5
C1
330
2
100
AcDbEntity
  8
ANCON-HLD
100
AcDbCircle
 10
7318.83886892635
 20
-5389.680922842003
 30
0.0
 40
1.5
100
AcDbArc
 50
58.38811314264617
 51
76.46194148736218
  0
ARC
  5
C2
330
2
100
AcDbEntity
  8
ANCON-HLD
100
AcDbCircle
 10
7318.83886892635
 20
-5389.680922842003
 30
0.0
 40
1.5
100
AcDbArc
 50
103.5380585126378
 51
121.3119961174291
  0
ARC
  5
C3
330
2
100
AcDbEntity
  8
ANCON-HLD
100
AcDbCircle
 10
7318.83886892635
 20
-5389.680922842003
 30
0.0
 40
1.5
100
AcDbArc
 50
148.3881131426551
 51
166.461941487389
  0
ARC
  5
C4
330
2
100
AcDbEntity
  8
ANCON-HLD
100
AcDbCircle
 10
7318.83886892635
 20
-5389.680922842003
 30
0.0
 40
1.5
100
AcDbArc
 50
193.538058512611
 51
211.3119961173878
  0
ARC
  5
C5
330
2
100
AcDbEntity
  8
ANCON-HLD
100
AcDbCircle
 10
7318.83886892635
 20
-5389.680922842003
 30
0.0
 40
1.5
100
AcDbArc
 50
238.3881131426462
 51
256.4619414873622
  0
LINE
  5
C6
330
2
100
AcDbEntity
  8
ANCON-HLD
100
AcDbLine
 10
7433.838868926351
 20
-5641.475679517701
 30
0.0
 11
7433.838868926351
 21
-5671.475679517701
 31
0.0
  0
LINE
  5
C7
330
2
100
AcDbEntity
  8
ANCON-HLD
100
AcDbLine
 10
7068.838868926352
 20
-5641.475679517701
 30
0.0
 11
7068.838868926352
 21
-5671.475679517701
 31
0.0
  0
LINE
  5
C8
330
2
100
AcDbEntity
  8
ANCON-HLD
100
AcDbLine
 10
7433.656969598271
 20
-5374.680922842003
 30
0.0
 11
7433.656969598271
 21
-5404.680922842002
 31
0.0
  0
LINE
  5
C9
330
2
100
AcDbEntity
  8
ANCON-HLD
100
AcDbLine
 10
7068.656969598271
 20
-5374.680922842003
 30
0.0
 11
7068.656969598271
 21
-5404.680922842002
 31
0.0
  0
LINE
  5
CA
330
2
100
AcDbEntity
  8
ANCON-HLD
100
AcDbLine
 10
7433.656969598271
 20
-5404.680922842002
 30
0.0
 11
7248.656969598271
 21
-5404.680922842002
 31
0.0
  0
LINE
  5
CB
330
2
100
AcDbEntity
  8
ANCON-HLD
100
AcDbLine
 10
7433.656969598271
 20
-5374.680922842003
 30
0.0
 11
7248.656969598272
 21
-5374.680922842003
 31
0.0
  0
LINE
  5
CC
330
2
100
AcDbEntity
  8
ANCON-HLD
100
AcDbLine
 10
7433.838868926351
 20
-5671.475679517701
 30
0.0
 11
7248.838868926352
 21
-5671.475679517701
 31
0.0
  0
LINE
  5
CD
330
2
100
AcDbEntity
  8
ANCON-HLD
100
AcDbLine
 10
7433.838868926351
 20
-5641.475679517701
 30
0.0
 11
7248.838868926352
 21
-5641.475679517701
 31
0.0
  0
LINE
  5
CE
330
2
100
AcDbEntity
  8
ANCON-HLD
100
AcDbLine
 10
7129.159576054323
 20
-5671.475679517701
 30
0.0
 11
7068.838868926352
 21
-5671.475679517701
 31
0.0
  0
LINE
  5
CF
330
2
100
AcDbEntity
  8
ANCON-HLD
100
AcDbLine
 10
7129.159576054323
 20
-5641.475679517701
 30
0.0
 11
7068.838868926352
 21
-5641.475679517701
 31
0.0
  0
LINE
  5
D0
330
2
100
AcDbEntity
  8
ANCON-HLD
100
AcDbLine
 10
7244.656969598271
 20
-5338.180922842003
 30
0.0
 11
7244.656969598271
 21
-5441.180922842002
 31
0.0
  0
LINE
  5
D1
330
2
100
AcDbEntity
  8
ANCON-HLD
100
AcDbLine
 10
7248.656969598272
 20
-5338.180922842003
 30
0.0
 11
7248.656969598271
 21
-5441.180922842002
 31
0.0
  0
LINE
  5
D2
330
2
100
AcDbEntity
  8
ANCON-HLD
100
AcDbLine
 10
7248.656969598272
 20
-5338.180922842003
 30
0.0
 11
7244.656969598271
 21
-5338.180922842003
 31
0.0
  0
LINE
  5
D3
330
2
100
AcDbEntity
  8
ANCON-HLD
100
AcDbLine
 10
7248.656969598272
 20
-5441.180922842002
 30
0.0
 11
7244.656969598271
 21
-5441.180922842002
 31
0.0
  0
LINE
  5
D4
330
2
100
AcDbEntity
  8
ANCON-HLD
100
AcDbLine
 10
7244.83886892635
 20
-5598.975679517701
 30
0.0
 11
7244.83886892635
 21
-5713.975679517701
 31
0.0
  0
LINE
  5
D5
330
2
100
AcDbEntity
  8
ANCON-HLD
100
AcDbLine
 10
7129.159576054323
 20
-5598.975679517701
 30
0.0
 11
7129.159576054323
 21
-5713.975679517701
 31
0.0
  0
LINE
  5
D6
330
2
100
AcDbEntity
  8
ANCON-HLD
100
AcDbLine
 10
7248.838868926352
 20
-5598.975679517701
 30
0.0
 11
7248.838868926352
 21
-5713.975679517701
 31
0.0
  0
LINE
  5
D7
330
2
100
AcDbEntity
  8
ANCON-HLD
100
AcDbLine
 10
7248.838868926352
 20
-5598.975679517701
 30
0.0
 11
7129.159576054323
 21
-5598.975679517701
 31
0.0
  0
LINE
  5
D8
330
2
100
AcDbEntity
  8
ANCON-HLD
100
AcDbLine
 10
7248.838868926352
 20
-5713.975679517701
 30
0.0
 11
7129.159576054323
 21
-5713.975679517701
 31
0.0
  0
CIRCLE
  5
D9
330
2
100
AcDbEntity
  8
ANCON-HLD
100
AcDbCircle
 10
7189.159576054322
 20
-5656.475679517701
 30
0.0
 40
15.0
  0
LINE
  5
DA
330
2
100
AcDbEntity
  8
ANCON-HLD
100
AcDbLine
 10
7244.656969598271
 20
-5374.680922842003
 30
0.0
 11
7132.977676726243
 21
-5374.680922842003
 31
0.0
  0
LINE
  5
DB
330
2
100
AcDbEntity
  8
ANCON-HLD
100
AcDbLine
 10
7244.656969598271
 20
-5404.680922842002
 30
0.0
 11
7132.977676726243
 21
-5404.680922842002
 31
0.0
  0
LINE
  5
DC
330
2
100
AcDbEntity
  8
ANCON-HLD
100
AcDbLine
 10
7128.977676726242
 20
-5374.680922842003
 30
0.0
 11
7068.656969598271
 21
-5374.680922842003
 31
0.0
  0
LINE
  5
DD
330
2
100
AcDbEntity
  8
ANCON-HLD
100
AcDbLine
 10
7128.977676726242
 20
-5404.680922842002
 30
0.0
 11
7068.656969598271
 21
-5404.680922842002
 31
0.0
  0
LINE
  5
DE
330
2
100
AcDbEntity
  8
CENTRE
 48
0.5
100
AcDbLine
 10
7455.235383346928
 20
-5656.475679517702
 30
0.0
 11
7059.015285715204
 21
-5656.475679517701
 31
0.0
  0
LINE
  5
DF
330
2
100
AcDbEntity
  8
CENTRE
 48
0.5
100
AcDbLine
 10
7189.159576054322
 20
-5637.725679517701
 30
0.0
 11
7189.159576054322
 21
-5675.225679517701
 31
0.0
  0
LINE
  5
E0
330
2
100
AcDbEntity
  8
ANCON-HLD
100
AcDbLine
 10
7132.977676726243
 20
-5419.345716790385
 30
0.0
 11
7132.977676726243
 21
-5360.01612889362
 31
0.0
  0
ARC
  5
E1
330
2
100
AcDbEntity
  8
ANCON-HLD
100
AcDbCircle
 10
7188.977676726243
 20
-5389.680922842003
 30
0.0
 40
66.0
100
AcDbArc
 50
217.2579160013177
 51
322.6947990342006
  0
ARC
  5
E2
330
2
100
AcDbEntity
  8
ANCON-HLD
100
AcDbCircle
 10
7188.977676726243
 20
-5389.680922842003
 30
0.0
 40
66.0
100
AcDbArc
 50
37.30520096579939
 51
142.7420839986823
  0
ARC
  5
E3
330
2
100
AcDbEntity
  8
ANCON-HLD
100
AcDbCircle
 10
7149.977676726243
 20
-5360.01612889362
 30
0.0
 40
17.0
100
AcDbArc
 50
142.7420839986823
 51
180.0
  0
ARC
  5
E4
330
2
100
AcDbEntity
  8
ANCON-HLD
100
AcDbCircle
 10
7149.977676726243
 20
-5419.345716790385
 30
0.0
 40
17.0
100
AcDbArc
 50
180.0
 51
217.2579160013177
  0
LINE
  5
E5
330
2
100
AcDbEntity
  8
ANCON-HLD
100
AcDbLine
 10
7241.47529571987
 20
-5349.680922842003
 30
0.0
 11
7244.656969598271
 21
-5347.25668041776
 31
0.0
  0
LINE
  5
E6
330
2
100
AcDbEntity
  8
ANCON-HLD
100
AcDbLine
 10
7241.47529571987
 20
-5429.680922842003
 30
0.0
 11
7244.656969598271
 21
-5432.105165266245
 31
0.0
  0
LINE
  5
E7
330
2
100
AcDbEntity
  8
CENTRE
 48
0.5
100
AcDbLine
 10
7058.833386387125
 20
-5389.680922842003
 30
0.0
 11
7455.051314608521
 21
-5389.680922842003
 31
0.0
  0
LWPOLYLINE
  5
E8
330
2
100
AcDbEntity
  8
ANCON-HLD
100
AcDbPolyline
 90
        6
 70
     0
 43
0.0
 10
7244.656969598262
 20
-5347.256680417746
 42
0.4955175090715163
 10
7133.263391011962
 20
-5347.302645772879
 42
0.1640157736614641
 10
7128.977676726242
 20
-5360.01612889362
 10
7128.977676726242
 20
-5419.345716790385
 42
0.1640157736614641
 10
7133.263391011958
 20
-5432.059199911122
 42
0.4955175090715163
 10
7244.656969598262
 20
-5432.105165266259
  0
LINE
  5
E9
330
2
100
AcDbEntity
  8
ANCON-CONCRETE
100
AcDbLine
 10
7268.838868926351
 20
-5293.212146781028
 30
0.0
 11
7268.838868926351
 21
-5486.149698902977
 31
0.0
  0
LINE
  5
EA
330
2
100
AcDbEntity
  8
ANCON-CONCRETE
100
AcDbLine
 10
7268.838868926351
 20
-5540.006903456727
 30
0.0
 11
7268.838868926351
 21
-5772.944455578675
 31
0.0
  0
LINE
  5
EB
330
2
100
AcDbEntity
  8
ANCON-CONCRETE
100
AcDbLine
 10
7248.83886892635
 20
-5293.212146781028
 30
0.0
 11
7248.83886892635
 21
-5486.149698902977
 31
0.0
  0
LINE
  5
EC
330
2
100
AcDbEntity
  8
ANCON-CONCRETE
100
AcDbLine
 10
7248.838868926352
 20
-5540.006903456727
 30
0.0
 11
7248.838868926352
 21
-5772.944455578675
 31
0.0
  0
ENDSEC
  0
SECTION
  2
OBJECTS
  0
DICTIONARY
  5
C
330
0
100
AcDbDictionary
281
     1
  3
ACAD_COLOR
350
33
  3
ACAD_GROUP
350
2F
  3
ACAD_LAYOUT
350
10
  3
ACAD_MATERIAL
350
32
  3
ACAD_MLINESTYLE
350
30
  3
ACAD_PLOTSETTINGS
350
31
  3
ACAD_PLOTSTYLENAME
350
B
  3
ACAD_TABLESTYLE
350
34
  3
ACAD_VISUALSTYLE
350
28
  3
AcDbVariableDictionary
350
EF
  0
DICTIONARY
  5
25
330
23
100
AcDbDictionary
280
     1
281
     1
  3
ACAD_XREC_ROUNDTRIP
360
26
  0
DICTIONARY
  5
19
330
18
100
AcDbDictionary
280
     1
281
     1
  3
ACAD_LAYERSTATES
360
1A
  0
DICTIONARY
  5
8
330
7
100
AcDbDictionary
280
     1
281
     1
  3
ADSK_XREC_LAYER_RECONCILED
360
9
  0
DICTIONARY
  5
36
330
35
100
AcDbDictionary
280
     1
281
     1
  3
ADSK_XREC_LAYER_RECONCILED
360
37
  0
DICTIONARY
  5
3F
330
3E
100
AcDbDictionary
280
     1
281
     1
  3
ADSK_XREC_LAYER_RECONCILED
360
40
  0
DICTIONARY
  5
61
330
60
100
AcDbDictionary
280
     1
281
     1
  3
ADSK_XREC_LAYER_RECONCILED
360
62
  0
DICTIONARY
  5
3
330
2
100
AcDbDictionary
280
     1
281
     1
  3
ACAD_LAYOUTSELFREF
360
4
  3
ACAD_SORTENTS
360
ED
  0
DICTIONARY
  5
13
330
12
100
AcDbDictionary
280
     1
281
     1
  3
ACAD_LAYOUTSELFREF
360
14
  0
DICTIONARY
  5
33
102
{ACAD_REACTORS
330
C
102
}
330
C
100
AcDbDictionary
281
     1
  0
DICTIONARY
  5
2F
102
{ACAD_REACTORS
330
C
102
}
330
C
100
AcDbDictionary
281
     1
  0
DICTIONARY
  5
10
102
{ACAD_REACTORS
330
C
102
}
330
C
100
AcDbDictionary
281
     1
  3
Layout1
350
17
  3
Model
350
F
  0
DICTIONARY
  5
32
102
{ACAD_REACTORS
330
C
102
}
330
C
100
AcDbDictionary
281
     1
  0
DICTIONARY
  5
30
102
{ACAD_REACTORS
330
C
102
}
330
C
100
AcDbDictionary
281
     1
  3
STANDARD
350
38
  0
DICTIONARY
  5
31
102
{ACAD_REACTORS
330
C
102
}
330
C
100
AcDbDictionary
281
     1
  0
ACDBDICTIONARYWDFLT
  5
B
102
{ACAD_REACTORS
330
C
102
}
330
C
100
AcDbDictionary
281
     1
  3
Normal
350
A
100
AcDbDictionaryWithDefault
340
A
  0
DICTIONARY
  5
34
102
{ACAD_REACTORS
330
C
102
}
330
C
100
AcDbDictionary
281
     1
  3
Standard
350
39
  0
DICTIONARY
  5
28
102
{ACAD_REACTORS
330
C
102
}
330
C
100
AcDbDictionary
281
     1
  3
2dWireframe
350
27
  0
DICTIONARY
  5
EF
102
{ACAD_REACTORS
330
C
102
}
330
C
100
AcDbDictionary
281
     1
  3
CTABLESTYLE
350
F0
  0
XRECORD
  5
26
102
{ACAD_REACTORS
330
25
102
}
330
25
100
AcDbXrecord
280
     1
102
VTR_0.000_0.000_1.000_1.000_VISUALSTYLE
340
27
102
VTR_0.000_0.000_1.000_1.000_GRIDDISPLAY
 70
     3
102
VTR_0.000_0.000_1.000_1.000_GRIDMAJOR
 70
     5
102
VTR_0.000_0.000_1.000_1.000_DEFAULTLIGHTING
280
     1
102
VTR_0.000_0.000_1.000_1.000_DEFAULTLIGHTINGTYPE
 70
     1
102
VTR_0.000_0.000_1.000_1.000_BRIGHTNESS
141
0.0
102
VTR_0.000_0.000_1.000_1.000_CONTRAST
142
0.0
  0
DICTIONARY
  5
1A
102
{ACAD_REACTORS
330
19
102
}
330
19
100
AcDbDictionary
281
     1
  0
XRECORD
  5
9
102
{ACAD_REACTORS
330
8
102
}
330
8
100
AcDbXrecord
280
     1
290
     1
  0
XRECORD
  5
37
102
{ACAD_REACTORS
330
36
102
}
330
36
100
AcDbXrecord
280
     1
290
     1
  0
XRECORD
  5
40
102
{ACAD_REACTORS
330
3F
102
}
330
3F
100
AcDbXrecord
280
     1
290
     1
  0
XRECORD
  5
62
102
{ACAD_REACTORS
330
61
102
}
330
61
100
AcDbXrecord
280
     1
290
     1
  0
XRECORD
  5
4
102
{ACAD_REACTORS
330
3
102
}
330
3
100
AcDbXrecord
280
     1
340
2
  0
SORTENTSTABLE
  5
ED
102
{ACAD_REACTORS
330
3
102
}
330
3
100
AcDbSortentsTable
330
2
  0
XRECORD
  5
14
102
{ACAD_REACTORS
330
13
102
}
330
13
100
AcDbXrecord
280
     1
340
12
  0
LAYOUT
  5
17
102
{ACAD_REACTORS
330
10
102
}
330
10
100
AcDbPlotSettings
  1

  2
None
  4

  6

 40
0.0
 41
0.0
 42
0.0
 43
0.0
 44
0.0
 45
0.0
 46
0.0
 47
0.0
 48
0.0
 49
0.0
140
0.0
141
0.0
142
1.0
143
1.0
 70
   688
 72
     0
 73
     0
 74
     5
  7
Std pen settings.ctb
 75
    16
147
1.0
 76
     0
 77
     2
 78
   300
148
0.0
149
0.0
100
AcDbLayout
  1
Layout1
 70
     1
 71
     1
 10
0.0
 20
0.0
 11
420.0
 21
297.0
 12
0.0
 22
0.0
 32
0.0
 14
1.000000000000000E+20
 24
1.000000000000000E+20
 34
1.000000000000000E+20
 15
-1.000000000000000E+20
 25
-1.000000000000000E+20
 35
-1.000000000000000E+20
146
0.0
 13
0.0
 23
0.0
 33
0.0
 16
1.0
 26
0.0
 36
0.0
 17
0.0
 27
1.0
 37
0.0
 76
     0
330
12
  0
LAYOUT
  5
F
102
{ACAD_REACTORS
330
10
102
}
330
10
100
AcDbPlotSettings
  1

  2
none_device
  4
Letter_(8.50_x_11.00_Inches)
  6

 40
6.349999904632568
 41
6.349999904632568
 42
6.350006103515625
 43
6.350006103515625
 44
215.8999938964844
 45
279.3999938964844
 46
0.0
 47
0.0
 48
0.0
 49
0.0
140
0.0
141
0.0
142
1.0
143
190.4825914125939
 70
 11952
 72
     0
 73
     1
 74
     0
  7
Std pen settings.ctb
 75
     0
147
0.005249823580119
 76
     0
 77
     2
 78
   300
148
-187605.733827711
149
104251.2692448299
100
AcDbLayout
  1
Model
 70
     1
 71
     0
 10
0.0
 20
0.0
 11
12.0
 21
9.0
 12
0.0
 22
0.0
 32
0.0
 14
0.0
 24
0.0
 34
0.0
 15
0.0
 25
0.0
 35
0.0
146
0.0
 13
0.0
 23
0.0
 33
0.0
 16
1.0
 26
0.0
 36
0.0
 17
0.0
 27
1.0
 37
0.0
 76
     0
330
2
1001
ACAD_PSEXT
1000
None
1000
None
1000
Not applicable
1000
The layout will not be plotted unless a new plotter configuration name is selected.
1070
     0
  0
MLINESTYLE
  5
38
102
{ACAD_REACTORS
330
30
102
}
330
30
100
AcDbMlineStyle
  2
STANDARD
 70
     0
  3

 62
   256
 51
90.0
 52
90.0
 71
     2
 49
0.5
 62
   256
  6
BYLAYER
 49
-0.5
 62
   256
  6
BYLAYER
  0
ACDBPLACEHOLDER
  5
A
102
{ACAD_REACTORS
330
B
102
}
330
B
  0
TABLESTYLE
  5
39
102
{ACAD_XDICTIONARY
360
3A
102
}
102
{ACAD_REACTORS
330
34
102
}
330
34
100
AcDbTableStyle
  3
Standard
 70
     0
 71
     0
 40
0.06
 41
0.06
280
     0
281
     0
  7
STANDARD
140
0.18
170
     2
 62
     0
 63
     7
283
     0
274
    -2
284
     1
 64
     0
275
    -2
285
     1
 65
     0
276
    -2
286
     1
 66
     0
277
    -2
287
     1
 67
     0
278
    -2
288
     1
 68
     0
279
    -2
289
     1
 69
     0
  7
STANDARD
140
0.25
170
     5
 62
     0
 63
     7
283
     0
274
    -2
284
     1
 64
     0
275
    -2
285
     1
 65
     0
276
    -2
286
     1
 66
     0
277
    -2
287
     1
 67
     0
278
    -2
288
     1
 68
     0
279
    -2
289
     1
 69
     0
  7
STANDARD
140
0.18
170
     5
 62
     0
 63
     7
283
     0
274
    -2
284
     1
 64
     0
275
    -2
285
     1
 65
     0
276
    -2
286
     1
 66
     0
277
    -2
287
     1
 67
     0
278
    -2
288
     1
 68
     0
279
    -2
289
     1
 69
     0
  0
ACAD_PROXY_OBJECT
  5
27
102
{ACAD_REACTORS
330
28
102
}
330
28
100
AcDbProxyObject
 90
      499
 91
      512
 95
   983063
 70
     0
 93
      444
310
430C9915DA5C99599C985B59401049028333333333333E3BF0000000000000FB0107901411070040501600405405064090741402480A034F
 94
        0
1001
ACAD
1000
AcDbSavedByObjectVersion
1070
     0
  0
DICTIONARYVAR
  5
F0
102
{ACAD_REACTORS
330
EF
102
}
330
EF
100
DictionaryVariables
280
     0
  1
STANDARD
  0
DICTIONARY
  5
3A
330
39
100
AcDbDictionary
280
     1
281
     1
  3
ACAD_ROUNDTRIP_2008_TABLESTYLE_CELLSTYLEMAP
360
3B
  3
ACAD_XREC_ROUNDTRIP
360
3C
  0
ACAD_PROXY_OBJECT
  5
3B
102
{ACAD_REACTORS
330
3A
102
}
330
3A
100
AcDbProxyObject
 90
      499
 91
      518
 95
   983063
 70
     0
 93
     4020
310
40D054060020000020000003200101A412A5058000000C100000000000000340FE419019018000000C1003FBFFFFFE02B5E8DC0F42A9CFD029018000000C1003FBFFFFFE02B5E8DC0F42A9CFD049018000000C1003FBFFFFFE02B5E8DC0F42A9CFD089018000000C1003FBFFFFFE02B5E8DC0F42A9CFD109018000000C1003
310
FBFFFFFE02B5E8DC0F42A9CFD209018000000C1003FBFFFFFE02B5E8DC0F42A9CFD01405075F5449544C450041501A8000000C800406904A9416000000304000AD7A3703D0AC73F90640640600000030400FEFFFFFF80AD7A3703D0AA73F40A40600000030400FEFFFFFF80AD7A3703D0AA73F41240600000030400FEFFFFF
310
F80AD7A3703D0AA73F42240600000030400FEFFFFFF80AD7A3703D0AA73F44240600000030400FEFFFFFF80AD7A3703D0AA73F48240600000030400FEFFFFFF80AD7A3703D0AA73F409014217D2115051115480105406A0000003200101A412A5028000000C10002B5E8DC0F42B1CFE419019018000000C1003FBFFFFFE02B
310
5E8DC0F42A9CFD029018000000C1003FBFFFFFE02B5E8DC0F42A9CFD049018000000C1003FBFFFFFE02B5E8DC0F42A9CFD089018000000C1003FBFFFFFE02B5E8DC0F42A9CFD109018000000C1003FBFFFFFE02B5E8DC0F42A9CFD209018000000C1003FBFFFFFE02B5E8DC0F42A9CFD03409065F44415441004
340
1C
340
0
340
0
340
0
340
0
340
0
340
0
340
1C
340
0
340
0
340
0
340
0
340
0
340
0
340
1C
340
0
340
0
340
0
340
0
340
0
340
0
 94
        0
  0
XRECORD
  5
3C
102
{ACAD_REACTORS
330
3A
102
}
330
3A
100
AcDbXrecord
280
     1
102
ACAD_ROUNDTRIP_PRE2007_TABLESTYLE
 90
        4
 91
        0
  1

 92
        4
 93
        0
  2

 94
        4
 95
        0
  3

  0
ENDSEC
  0
EOF
