  0
SECTION
  2
HEADER
  9
$ACADVER
  1
AC1015
  9
$ACADMAINTVER
 70
    20
  9
$DWGCODEPAGE
  3
ANSI_1252
  9
$INSBASE
 10
7359.59466419427
 20
-3070.244766329999
 30
0.0
  9
$EXTMIN
 10
7035.437315344887
 20
-3703.186317394999
 30
0.0
  9
$EXTMAX
 10
8005.859408119365
 20
-2923.775990269025
 30
0.0
  9
$LIMMIN
 10
0.0
 20
0.0
  9
$LIMMAX
 10
420.0
 20
297.0
  9
$ORTHOMODE
 70
     1
  9
$REGENMODE
 70
     1
  9
$FILLMODE
 70
     1
  9
$QTEXTMODE
 70
     0
  9
$MIRRTEXT
 70
     1
  9
$LTSCALE
 40
0.25
  9
$ATTMODE
 70
     1
  9
$TEXTSIZE
 40
5.0
  9
$TRACEWID
 40
10.0
  9
$TEXTSTYLE
  7
ROMANS
  9
$CLAYER
  8
ANCON-CONCRETE
  9
$CELTYPE
  6
BYLAYER
  9
$CECOLOR
 62
   256
  9
$CELTSCALE
 40
1.0
  9
$DISPSILH
 70
     0
  9
$DIMSCALE
 40
0.0
  9
$DIMASZ
 40
4.0
  9
$DIMEXO
 40
3.0
  9
$DIMDLI
 40
10.0
  9
$DIMRND
 40
0.0
  9
$DIMDLE
 40
1.25
  9
$DIMEXE
 40
3.0
  9
$DIMTP
 40
0.0
  9
$DIMTM
 40
0.0
  9
$DIMTXT
 40
3.0
  9
$DIMCEN
 40
-3.0
  9
$DIMTSZ
 40
0.0
  9
$DIMTOL
 70
     0
  9
$DIMLIM
 70
     0
  9
$DIMTIH
 70
     0
  9
$DIMTOH
 70
     0
  9
$DIMSE1
 70
     0
  9
$DIMSE2
 70
     0
  9
$DIMTAD
 70
     1
  9
$DIMZIN
 70
    12
  9
$DIMBLK
  1

  9
$DIMASO
 70
     1
  9
$DIMSHO
 70
     0
  9
$DIMPOST
  1

  9
$DIMAPOST
  1

  9
$DIMALT
 70
     0
  9
$DIMALTD
 70
     2
  9
$DIMALTF
 40
0.039
  9
$DIMLFAC
 40
1.0
  9
$DIMTOFL
 70
     0
  9
$DIMTVP
 40
1.5
  9
$DIMTIX
 70
     0
  9
$DIMSOXD
 70
     0
  9
$DIMSAH
 70
     0
  9
$DIMBLK1
  1

  9
$DIMBLK2
  1

  9
$DIMSTYLE
  2
1-2
  9
$DIMCLRD
 70
     0
  9
$DIMCLRE
 70
     0
  9
$DIMCLRT
 70
     0
  9
$DIMTFAC
 40
0.75
  9
$DIMGAP
 40
1.5
  9
$DIMJUST
 70
     0
  9
$DIMSD1
 70
     0
  9
$DIMSD2
 70
     0
  9
$DIMTOLJ
 70
     1
  9
$DIMTZIN
 70
    12
  9
$DIMALTZ
 70
    12
  9
$DIMALTTZ
 70
    12
  9
$DIMUPT
 70
     0
  9
$DIMDEC
 70
     2
  9
$DIMTDEC
 70
     2
  9
$DIMALTU
 70
     2
  9
$DIMALTTD
 70
     2
  9
$DIMTXSTY
  7
ROMANS
  9
$DIMAUNIT
 70
     0
  9
$DIMADEC
 70
     0
  9
$DIMALTRND
 40
0.0
  9
$DIMAZIN
 70
     0
  9
$DIMDSEP
 70
    46
  9
$DIMATFIT
 70
     3
  9
$DIMFRAC
 70
     0
  9
$DIMLDRBLK
  1

  9
$DIMLUNIT
 70
     2
  9
$DIMLWD
 70
    -2
  9
$DIMLWE
 70
    -2
  9
$DIMTMOVE
 70
     2
  9
$LUNITS
 70
     2
  9
$LUPREC
 70
     2
  9
$SKETCHINC
 40
1.0
  9
$FILLETRAD
 40
0.0
  9
$AUNITS
 70
     0
  9
$AUPREC
 70
     4
  9
$MENU
  1
acad
  9
$ELEVATION
 40
0.0
  9
$PELEVATION
 40
0.0
  9
$THICKNESS
 40
0.0
  9
$LIMCHECK
 70
     0
  9
$CHAMFERA
 40
0.0
  9
$CHAMFERB
 40
0.0
  9
$CHAMFERC
 40
0.0
  9
$CHAMFERD
 40
0.0
  9
$SKPOLY
 70
     0
  9
$TDCREATE
 40
2449527.571155093
  9
$TDUCREATE
 40
2449527.529488426
  9
$TDUPDATE
 40
2455062.515696250
  9
$TDUUPDATE
 40
2455062.474029583
  9
$TDINDWG
 40
0.8351365509
  9
$TDUSRTIMER
 40
0.8351365509
  9
$USRTIMER
 70
     1
  9
$ANGBASE
 50
0.0
  9
$ANGDIR
 70
     0
  9
$PDMODE
 70
     0
  9
$PDSIZE
 40
0.0
  9
$PLINEWID
 40
0.0
  9
$SPLFRAME
 70
     0
  9
$SPLINETYPE
 70
     6
  9
$SPLINESEGS
 70
     8
  9
$HANDSEED
  5
103
  9
$SURFTAB1
 70
    18
  9
$SURFTAB2
 70
    18
  9
$SURFTYPE
 70
     6
  9
$SURFU
 70
    18
  9
$SURFV
 70
    18
  9
$UCSBASE
  2

  9
$UCSNAME
  2

  9
$UCSORG
 10
0.0
 20
0.0
 30
0.0
  9
$UCSXDIR
 10
1.0
 20
0.0
 30
0.0
  9
$UCSYDIR
 10
0.0
 20
1.0
 30
0.0
  9
$UCSORTHOREF
  2

  9
$UCSORTHOVIEW
 70
     0
  9
$UCSORGTOP
 10
0.0
 20
0.0
 30
0.0
  9
$UCSORGBOTTOM
 10
0.0
 20
0.0
 30
0.0
  9
$UCSORGLEFT
 10
0.0
 20
0.0
 30
0.0
  9
$UCSORGRIGHT
 10
0.0
 20
0.0
 30
0.0
  9
$UCSORGFRONT
 10
0.0
 20
0.0
 30
0.0
  9
$UCSORGBACK
 10
0.0
 20
0.0
 30
0.0
  9
$PUCSBASE
  2

  9
$PUCSNAME
  2

  9
$PUCSORG
 10
0.0
 20
0.0
 30
0.0
  9
$PUCSXDIR
 10
1.0
 20
0.0
 30
0.0
  9
$PUCSYDIR
 10
0.0
 20
1.0
 30
0.0
  9
$PUCSORTHOREF
  2

  9
$PUCSORTHOVIEW
 70
     0
  9
$PUCSORGTOP
 10
0.0
 20
0.0
 30
0.0
  9
$PUCSORGBOTTOM
 10
0.0
 20
0.0
 30
0.0
  9
$PUCSORGLEFT
 10
0.0
 20
0.0
 30
0.0
  9
$PUCSORGRIGHT
 10
0.0
 20
0.0
 30
0.0
  9
$PUCSORGFRONT
 10
0.0
 20
0.0
 30
0.0
  9
$PUCSORGBACK
 10
0.0
 20
0.0
 30
0.0
  9
$USERI1
 70
     0
  9
$USERI2
 70
     0
  9
$USERI3
 70
     0
  9
$USERI4
 70
     0
  9
$USERI5
 70
     0
  9
$USERR1
 40
0.0
  9
$USERR2
 40
0.0
  9
$USERR3
 40
0.0
  9
$USERR4
 40
0.0
  9
$USERR5
 40
0.0
  9
$WORLDVIEW
 70
     1
  9
$SHADEDGE
 70
     3
  9
$SHADEDIF
 70
    70
  9
$TILEMODE
 70
     1
  9
$MAXACTVP
 70
    16
  9
$PINSBASE
 10
0.0
 20
0.0
 30
0.0
  9
$PLIMCHECK
 70
     0
  9
$PEXTMIN
 10
1.000000000000000E+20
 20
1.000000000000000E+20
 30
1.000000000000000E+20
  9
$PEXTMAX
 10
-1.000000000000000E+20
 20
-1.000000000000000E+20
 30
-1.000000000000000E+20
  9
$PLIMMIN
 10
0.0
 20
0.0
  9
$PLIMMAX
 10
420.0
 20
297.0
  9
$UNITMODE
 70
     0
  9
$VISRETAIN
 70
     0
  9
$PLINEGEN
 70
     0
  9
$PSLTSCALE
 70
     1
  9
$TREEDEPTH
 70
  3020
  9
$CMLSTYLE
  2
STANDARD
  9
$CMLJUST
 70
     0
  9
$CMLSCALE
 40
1.0
  9
$PROXYGRAPHICS
 70
     1
  9
$MEASUREMENT
 70
     0
  9
$CELWEIGHT
370
    -1
  9
$ENDCAPS
280
     0
  9
$JOINSTYLE
280
     0
  9
$LWDISPLAY
290
     0
  9
$INSUNITS
 70
     0
  9
$HYPERLINKBASE
  1

  9
$STYLESHEET
  1

  9
$XEDIT
290
     1
  9
$CEPSNTYPE
380
     0
  9
$PSTYLEMODE
290
     1
  9
$FINGERPRINTGUID
  2
{F913A0C8-193E-4D2E-9D82-20B2A2ED99A7}
  9
$VERSIONGUID
  2
{3D0EA16E-D295-42DB-BB14-F5DEA7F09795}
  9
$EXTNAMES
290
     1
  9
$PSVPSCALE
 40
0.0
  9
$OLESTARTUP
290
     0
  0
ENDSEC
  0
SECTION
  2
CLASSES
  0
CLASS
  1
DICTIONARYVAR
  2
AcDbDictionaryVar
  3
ObjectDBX Classes
 90
        0
280
     0
281
     0
  0
CLASS
  1
LWPOLYLINE
  2
AcDbPolyline
  3
ObjectDBX Classes
 90
    32768
280
     0
281
     1
  0
CLASS
  1
XRECORD
  2
AcDbXrecord
  3
ObjectDBX Classes
 90
        0
280
     0
281
     0
  0
CLASS
  1
ACDBDICTIONARYWDFLT
  2
AcDbDictionaryWithDefault
  3
ObjectDBX Classes
 90
        0
280
     0
281
     0
  0
CLASS
  1
ACDBPLACEHOLDER
  2
AcDbPlaceHolder
  3
ObjectDBX Classes
 90
        0
280
     0
281
     0
  0
CLASS
  1
LAYOUT
  2
AcDbLayout
  3
ObjectDBX Classes
 90
        0
280
     0
281
     0
  0
CLASS
  1
LONG_TRANSACTION
  2
AcDbLongTransaction
  3
ObjectDBX Classes
 90
    32768
280
     0
281
     0
  0
CLASS
  1
LWPOLYLINE
  2
AcDbPolyline
  3
ObjectDBX Classes
 90
    32768
280
     0
281
     1
  0
CLASS
  1
HATCH
  2
AcDbHatch
  3
ObjectDBX Classes
 90
    32768
280
     0
281
     1
  0
CLASS
  1
XRECORD
  2
AcDbXrecord
  3
ObjectDBX Classes
 90
        0
280
     0
281
     0
  0
CLASS
  1
TABLESTYLE
  2
AcDbTableStyle
  3
ObjectDBX Classes
 90
     2047
280
     0
281
     0
  0
CLASS
  1
MATERIAL
  2
AcDbMaterial
  3
ObjectDBX Classes
 90
    32768
280
     0
281
     0
  0
CLASS
  1
VISUALSTYLE
  2
AcDbVisualStyle
  3
ObjectDBX Classes
 90
     4095
280
     1
281
     0
  0
CLASS
  1
SCALE
  2
AcDbScale
  3
ObjectDBX Classes
 90
    33921
280
     1
281
     0
  0
CLASS
  1
MLEADERSTYLE
  2
AcDbMLeaderStyle
  3
ACDB_MLEADERSTYLE_CLASS
 90
    36863
280
     1
281
     0
  0
CLASS
  1
PLOTSETTINGS
  2
AcDbPlotSettings
  3
ObjectDBX Classes
 90
    32768
280
     0
281
     0
  0
CLASS
  1
DIMASSOC
  2
AcDbDimAssoc
  3
"AcDbDimAssoc|Product Desc:     AcDim ARX App For Dimension|Company:          Autodesk, Inc.|WEB Address:      www.autodesk.com"
 90
    32768
280
     0
281
     0
  0
CLASS
  1
SORTENTSTABLE
  2
AcDbSortentsTable
  3
ObjectDBX Classes
 90
        0
280
     0
281
     0
  0
CLASS
  1
CELLSTYLEMAP
  2
AcDbCellStyleMap
  3
ObjectDBX Classes
 90
     1152
280
     1
281
     0
  0
CLASS
  1
AEC_REFEDIT_STATUS_TRACKER
  2
AecDbRefEditStatusTracker
  3
AecArchBase50|Product Desc: Autodesk Architectural Desktop 2007 |Company: Autodesk,Inc. |WEB Address: www.autodesk.com
 90
    32897
280
     1
281
     0
  0
CLASS
  1
NPOCOLLECTION
  2
AcDbImpNonPersistentObjectsCollection
  3
ObjectDBX Classes
 90
    33921
280
     1
281
     0
  0
ENDSEC
  0
SECTION
  2
TABLES
  0
TABLE
  2
VPORT
  5
23
102
{ACAD_XDICTIONARY
360
25
102
}
330
0
100
AcDbSymbolTable
 70
     2
  0
VPORT
  5
FD
330
23
100
AcDbSymbolTableRecord
100
AcDbViewportTableRecord
  2
*Active
 70
     0
 10
0.0
 20
0.0
 11
1.0
 21
1.0
 12
8760.195307942501
 22
-3564.996245373234
 13
0.0
 23
0.0
 14
5.0
 24
5.0
 15
10.0
 25
10.0
 16
0.0
 26
0.0
 36
1.0
 17
0.0
 27
0.0
 37
0.0
 40
3475.922398291958
 41
2.573816155988858
 42
50.0
 43
0.0
 44
0.0
 50
0.0
 51
0.0
 71
     0
 72
   100
 73
     1
 74
     1
 75
     0
 76
     0
 77
     0
 78
     1
281
     0
 65
     1
110
0.0
120
0.0
130
0.0
111
1.0
121
0.0
131
0.0
112
0.0
122
1.0
132
0.0
 79
     0
146
0.0
  0
ENDTAB
  0
TABLE
  2
LTYPE
  5
1E
330
0
100
AcDbSymbolTable
 70
     3
  0
LTYPE
  5
1F
330
1E
100
AcDbSymbolTableRecord
100
AcDbLinetypeTableRecord
  2
BYBLOCK
 70
     0
  3

 72
    65
 73
     0
 40
0.0
  0
LTYPE
  5
20
330
1E
100
AcDbSymbolTableRecord
100
AcDbLinetypeTableRecord
  2
BYLAYER
 70
     0
  3

 72
    65
 73
     0
 40
0.0
  0
LTYPE
  5
D
330
1E
100
AcDbSymbolTableRecord
100
AcDbLinetypeTableRecord
  2
CONTINUOUS
 70
     0
  3
Solid line
 72
    65
 73
     0
 40
0.0
  0
LTYPE
  5
B3
330
1E
100
AcDbSymbolTableRecord
100
AcDbLinetypeTableRecord
  2
PHANTM1_10
 70
     0
  3
__________  __  __  _________  __  __  ________
 72
    65
 73
     6
 40
400.0
 49
200.0
 74
     0
 49
-40.0
 74
     0
 49
40.0
 74
     0
 49
-40.0
 74
     0
 49
40.0
 74
     0
 49
-40.0
 74
     0
  0
LTYPE
  5
6D
330
1E
100
AcDbSymbolTableRecord
100
AcDbLinetypeTableRecord
  2
CENTER
 70
     0
  3
Center ____ _ ____ _ ____ _ ____ _ ____ _ ____
 72
    65
 73
     4
 40
50.8
 49
31.75
 74
     0
 49
-6.349999999999999
 74
     0
 49
6.349999999999999
 74
     0
 49
-6.349999999999999
 74
     0
  0
ENDTAB
  0
TABLE
  2
LAYER
  5
18
102
{ACAD_XDICTIONARY
360
19
102
}
330
0
100
AcDbSymbolTable
 70
     6
  0
LAYER
  5
7
102
{ACAD_XDICTIONARY
360
8
102
}
330
18
100
AcDbSymbolTableRecord
100
AcDbLayerTableRecord
  2
0
 70
     0
 62
     7
  6
CONTINUOUS
370
    -3
390
A
  0
LAYER
  5
35
102
{ACAD_XDICTIONARY
360
36
102
}
330
18
100
AcDbSymbolTableRecord
100
AcDbLayerTableRecord
  2
ANCON-CONCRETE
 70
     0
 62
     2
  6
CONTINUOUS
370
    -3
390
A
  0
LAYER
  5
D0
102
{ACAD_XDICTIONARY
360
D1
102
}
330
18
100
AcDbSymbolTableRecord
100
AcDbLayerTableRecord
  2
ANCON-TEXT
 70
     0
 62
     6
  6
CONTINUOUS
370
    -3
390
A
  0
LAYER
  5
98
102
{ACAD_XDICTIONARY
360
99
102
}
330
18
100
AcDbSymbolTableRecord
100
AcDbLayerTableRecord
  2
OUTLINE
 70
     0
 62
     5
  6
CONTINUOUS
370
    -3
390
A
  0
LAYER
  5
6A
102
{ACAD_XDICTIONARY
360
6B
102
}
330
18
100
AcDbSymbolTableRecord
100
AcDbLayerTableRecord
  2
CENTRE
 70
     0
 62
     1
  6
CENTER
370
    -3
390
A
  0
LAYER
  5
3E
330
18
100
AcDbSymbolTableRecord
100
AcDbLayerTableRecord
  2
ANCON-HLD
 70
     0
 62
     3
  6
CONTINUOUS
370
    -3
390
A
1001
AcAecLayerStandard
1000

1000

  0
ENDTAB
  0
TABLE
  2
STYLE
  5
1B
330
0
100
AcDbSymbolTable
 70
     2
  0
STYLE
  5
1C
330
1B
100
AcDbSymbolTableRecord
100
AcDbTextStyleTableRecord
  2
STANDARD
 70
     0
 40
0.0
 41
1.0
 50
0.0
 71
     0
 42
6.0
  3
txt.shx
  4

  0
STYLE
  5
2D
330
1B
100
AcDbSymbolTableRecord
100
AcDbTextStyleTableRecord
  2
ROMANS
 70
     0
 40
0.0
 41
1.0
 50
0.0
 71
     0
 42
5.0
  3
romans
  4

  0
ENDTAB
  0
TABLE
  2
VIEW
  5
21
330
0
100
AcDbSymbolTable
 70
     0
  0
ENDTAB
  0
TABLE
  2
UCS
  5
22
330
0
100
AcDbSymbolTable
 70
     0
  0
ENDTAB
  0
TABLE
  2
APPID
  5
2A
330
0
100
AcDbSymbolTable
 70
     3
  0
APPID
  5
29
330
2A
100
AcDbSymbolTableRecord
100
AcDbRegAppTableRecord
  2
ACAD
 70
     0
  0
APPID
  5
11
330
2A
100
AcDbSymbolTableRecord
100
AcDbRegAppTableRecord
  2
ACAD_PSEXT
 70
     0
  0
APPID
  5
3F
330
2A
100
AcDbSymbolTableRecord
100
AcDbRegAppTableRecord
  2
AcAecLayerStandard
 70
     0
  0
ENDTAB
  0
TABLE
  2
DIMSTYLE
  5
2B
330
0
100
AcDbSymbolTable
 70
     1
100
AcDbDimStyleTable
 71
     1
340
2C
  0
DIMSTYLE
105
2C
330
2B
100
AcDbSymbolTableRecord
100
AcDbDimStyleTableRecord
  2
1-2
 70
     0
 40
0.0
 41
4.0
 42
3.0
 43
10.0
 44
3.0
 46
1.25
 73
     0
 74
     0
 77
     1
 78
    12
140
3.0
141
-3.0
143
0.039
145
1.5
146
0.75
147
1.5
271
     2
272
     2
279
     2
284
    12
285
    12
286
    12
340
2D
  0
ENDTAB
  0
TABLE
  2
BLOCK_RECORD
  5
1
330
0
100
AcDbSymbolTable
 70
     0
  0
BLOCK_RECORD
  5
2
102
{ACAD_XDICTIONARY
360
3
102
}
330
1
100
AcDbSymbolTableRecord
100
AcDbBlockTableRecord
  2
*MODEL_SPACE
340
F
  0
BLOCK_RECORD
  5
12
102
{ACAD_XDICTIONARY
360
13
102
}
330
1
100
AcDbSymbolTableRecord
100
AcDbBlockTableRecord
  2
*PAPER_SPACE
340
17
  0
ENDTAB
  0
ENDSEC
  0
SECTION
  2
BLOCKS
  0
BLOCK
  5
6
330
2
100
AcDbEntity
  8
0
100
AcDbBlockBegin
  2
*MODEL_SPACE
 70
     0
 10
0.0
 20
0.0
 30
0.0
  3
*MODEL_SPACE
  1

  0
ENDBLK
  5
E
330
2
100
AcDbEntity
  8
0
100
AcDbBlockEnd
  0
BLOCK
  5
15
330
12
100
AcDbEntity
 67
     1
  8
0
100
AcDbBlockBegin
  2
*PAPER_SPACE
 70
     0
 10
0.0
 20
0.0
 30
0.0
  3
*PAPER_SPACE
  1

  0
ENDBLK
  5
16
330
12
100
AcDbEntity
 67
     1
  8
0
100
AcDbBlockEnd
  0
ENDSEC
  0
SECTION
  2
ENTITIES
  0
LINE
  5
3D
330
2
100
AcDbEntity
  8
ANCON-HLD
100
AcDbLine
 10
7079.594664194271
 20
-3096.24476633
 30
0.0
 11
7359.59466419427
 21
-3096.24476633
 31
0.0
  0
LINE
  5
40
330
2
100
AcDbEntity
  8
ANCON-HLD
100
AcDbLine
 10
7079.594664194271
 20
-3044.24476633
 30
0.0
 11
7359.59466419427
 21
-3044.24476633
 31
0.0
  0
LINE
  5
41
330
2
100
AcDbEntity
  8
ANCON-HLD
100
AcDbLine
 10
7079.594664194271
 20
-3379.790098094853
 30
0.0
 11
7359.59466419427
 21
-3379.790098094853
 31
0.0
  0
LINE
  5
42
330
2
100
AcDbEntity
  8
ANCON-HLD
100
AcDbLine
 10
7079.594664194271
 20
-3431.790098094853
 30
0.0
 11
7359.59466419427
 21
-3431.790098094853
 31
0.0
  0
LINE
  5
43
330
2
100
AcDbEntity
  8
ANCON-HLD
100
AcDbLine
 10
7079.594664194271
 20
-3379.790098094853
 30
0.0
 11
7079.594664194271
 21
-3431.790098094853
 31
0.0
  0
LINE
  5
44
330
2
100
AcDbEntity
  8
ANCON-HLD
100
AcDbLine
 10
7079.594664194271
 20
-3096.24476633
 30
0.0
 11
7079.594664194271
 21
-3044.24476633
 31
0.0
  0
LINE
  5
45
330
2
100
AcDbEntity
  8
ANCON-HLD
100
AcDbLine
 10
7454.594664194271
 20
-3471.748870042711
 30
0.0
 11
7454.594664194271
 21
-3339.831326146995
 31
0.0
  0
CIRCLE
  5
46
330
2
100
AcDbEntity
  8
ANCON-HLD
100
AcDbCircle
 10
7454.594664194271
 20
-3405.790098094853
 30
0.0
 40
20.0
  0
LINE
  5
47
330
2
100
AcDbEntity
  8
ANCON-HLD
100
AcDbLine
 10
7359.594664194272
 20
-3510.790098094851
 30
0.0
 11
7359.59466419427
 21
-3300.790098094852
 31
0.0
  0
LINE
  5
48
330
2
100
AcDbEntity
  8
ANCON-HLD
100
AcDbLine
 10
7549.594664194271
 20
-3510.790098094853
 30
0.0
 11
7549.594664194271
 21
-3300.790098094853
 31
0.0
  0
LINE
  5
49
330
2
100
AcDbEntity
  8
ANCON-HLD
100
AcDbLine
 10
7649.594664194271
 20
-3431.790098094853
 30
0.0
 11
7649.594664194271
 21
-3379.790098094853
 31
0.0
  0
LINE
  5
4A
330
2
100
AcDbEntity
  8
ANCON-HLD
100
AcDbLine
 10
7549.594664194271
 20
-3431.790098094853
 30
0.0
 11
7649.594664194271
 21
-3431.790098094853
 31
0.0
  0
LINE
  5
4B
330
2
100
AcDbEntity
  8
ANCON-HLD
100
AcDbLine
 10
7359.59466419427
 20
-3510.790098094851
 30
0.0
 11
7549.594664194271
 21
-3510.790098094853
 31
0.0
  0
LINE
  5
4C
330
2
100
AcDbEntity
  8
ANCON-HLD
100
AcDbLine
 10
7549.594664194271
 20
-3096.24476633
 30
0.0
 11
7649.594664194271
 21
-3096.24476633
 31
0.0
  0
LINE
  5
4D
330
2
100
AcDbEntity
  8
ANCON-HLD
100
AcDbLine
 10
7549.594664194271
 20
-3044.24476633
 30
0.0
 11
7649.594664194271
 21
-3044.24476633
 31
0.0
  0
LINE
  5
4E
330
2
100
AcDbEntity
  8
ANCON-HLD
100
AcDbLine
 10
7549.594664194271
 20
-3379.790098094853
 30
0.0
 11
7649.594664194271
 21
-3379.790098094853
 31
0.0
  0
LINE
  5
4F
330
2
100
AcDbEntity
  8
ANCON-HLD
100
AcDbLine
 10
7543.59466419427
 20
-3117.35579183928
 30
0.0
 11
7543.59466419427
 21
-3023.13374082072
 31
0.0
  0
LINE
  5
50
330
2
100
AcDbEntity
  8
ANCON-HLD
100
AcDbLine
 10
7365.59466419427
 20
-3150.24476633
 30
0.0
 11
7365.59466419427
 21
-2990.24476633
 31
0.0
  0
LINE
  5
51
330
2
100
AcDbEntity
  8
ANCON-HLD
100
AcDbLine
 10
7359.59466419427
 20
-3150.24476633
 30
0.0
 11
7359.59466419427
 21
-2990.24476633
 31
0.0
  0
LINE
  5
52
330
2
100
AcDbEntity
  8
ANCON-HLD
100
AcDbLine
 10
7549.594664194271
 20
-3117.35579183928
 30
0.0
 11
7549.594664194271
 21
-3023.13374082072
 31
0.0
  0
ARC
  5
53
330
2
100
AcDbEntity
  8
ANCON-HLD
100
AcDbCircle
 10
7454.594664194271
 20
-3045.24476633
 30
0.0
 40
129.0
100
AcDbArc
 50
238.034281249206
 51
301.965718750794
  0
ARC
  5
54
330
2
100
AcDbEntity
  8
ANCON-HLD
100
AcDbCircle
 10
7454.594664194271
 20
-3045.24476633
 30
0.0
 40
135.0
100
AcDbArc
 50
238.034281249206
 51
301.965718750794
  0
LINE
  5
55
330
2
100
AcDbEntity
  8
ANCON-HLD
100
AcDbLine
 10
7359.59466419427
 20
-3300.790098094852
 30
0.0
 11
7549.594664194271
 21
-3300.790098094853
 31
0.0
  0
ARC
  5
56
330
2
100
AcDbEntity
  8
ANCON-HLD
100
AcDbCircle
 10
7409.59466419427
 20
-3117.35579183928
 30
0.0
 40
44.0
100
AcDbArc
 50
208.3576365763468
 51
238.034281249206
  0
ARC
  5
57
330
2
100
AcDbEntity
  8
ANCON-HLD
100
AcDbCircle
 10
7409.59466419427
 20
-3117.35579183928
 30
0.0
 40
50.0
100
AcDbArc
 50
208.3576365763468
 51
238.034281249206
  0
LINE
  5
58
330
2
100
AcDbEntity
  8
ANCON-HLD
100
AcDbLine
 10
7365.59466419427
 20
-3141.104476013356
 30
0.0
 11
7370.874664194269
 21
-3138.254633912467
 31
0.0
  0
LINE
  5
59
330
2
100
AcDbEntity
  8
ANCON-HLD
100
AcDbLine
 10
7365.59466419427
 20
-3141.104476013355
 30
0.0
 11
7370.874664194269
 21
-3138.254633912465
 31
0.0
  0
LINE
  5
5A
330
2
100
AcDbEntity
  8
ANCON-HLD
100
AcDbLine
 10
7359.59466419427
 20
-3150.24476633
 30
0.0
 11
7365.59466419427
 21
-3150.24476633
 31
0.0
  0
ARC
  5
5B
330
2
100
AcDbEntity
  8
ANCON-HLD
100
AcDbCircle
 10
7499.594664194271
 20
-3117.35579183928
 30
0.0
 40
44.0
100
AcDbArc
 50
301.965718750794
 51
0.0
  0
ARC
  5
5C
330
2
100
AcDbEntity
  8
ANCON-HLD
100
AcDbCircle
 10
7499.594664194271
 20
-3117.35579183928
 30
0.0
 40
50.0
100
AcDbArc
 50
301.965718750794
 51
0.0
  0
LINE
  5
5D
330
2
100
AcDbEntity
  8
ANCON-HLD
100
AcDbLine
 10
7365.59466419427
 20
-3044.24476633
 30
0.0
 11
7543.59466419427
 21
-3044.24476633
 31
0.0
  0
LINE
  5
5E
330
2
100
AcDbEntity
  8
ANCON-HLD
100
AcDbLine
 10
7365.59466419427
 20
-3096.24476633
 30
0.0
 11
7543.59466419427
 21
-3096.24476633
 31
0.0
  0
ARC
  5
5F
330
2
100
AcDbEntity
  8
ANCON-HLD
100
AcDbCircle
 10
7454.594664194271
 20
-3095.24476633
 30
0.0
 40
129.0
100
AcDbArc
 50
58.03428124920601
 51
121.965718750794
  0
ARC
  5
60
330
2
100
AcDbEntity
  8
ANCON-HLD
100
AcDbCircle
 10
7454.594664194271
 20
-3095.24476633
 30
0.0
 40
135.0
100
AcDbArc
 50
58.03428124920601
 51
121.965718750794
  0
ARC
  5
61
330
2
100
AcDbEntity
  8
ANCON-HLD
100
AcDbCircle
 10
7409.59466419427
 20
-3023.13374082072
 30
0.0
 40
50.0
100
AcDbArc
 50
121.965718750794
 51
151.6423634236532
  0
ARC
  5
62
330
2
100
AcDbEntity
  8
ANCON-HLD
100
AcDbCircle
 10
7409.59466419427
 20
-3023.13374082072
 30
0.0
 40
44.0
100
AcDbArc
 50
121.965718750794
 51
151.6423634236532
  0
LINE
  5
63
330
2
100
AcDbEntity
  8
ANCON-HLD
100
AcDbLine
 10
7365.594664194261
 20
-2999.385056646663
 30
0.0
 11
7370.874664194261
 21
-3002.234898747552
 31
0.0
  0
LINE
  5
64
330
2
100
AcDbEntity
  8
ANCON-HLD
100
AcDbLine
 10
7365.594664194261
 20
-2999.385056646663
 30
0.0
 11
7370.874664194261
 21
-3002.234898747552
 31
0.0
  0
LINE
  5
65
330
2
100
AcDbEntity
  8
ANCON-HLD
100
AcDbLine
 10
7359.59466419427
 20
-2990.24476633
 30
0.0
 11
7365.59466419427
 21
-2990.24476633
 31
0.0
  0
ARC
  5
66
330
2
100
AcDbEntity
  8
ANCON-HLD
100
AcDbCircle
 10
7499.594664194271
 20
-3023.13374082072
 30
0.0
 40
44.0
100
AcDbArc
 50
0.0
 51
58.03428124920601
  0
ARC
  5
67
330
2
100
AcDbEntity
  8
ANCON-HLD
100
AcDbCircle
 10
7499.594664194271
 20
-3023.13374082072
 30
0.0
 40
50.0
100
AcDbArc
 50
0.0
 51
58.03428124920601
  0
LINE
  5
68
330
2
100
AcDbEntity
  8
ANCON-HLD
100
AcDbLine
 10
7649.594664194271
 20
-3096.24476633
 30
0.0
 11
7649.594664194271
 21
-3044.24476633
 31
0.0
  0
LINE
  5
69
330
2
100
AcDbEntity
  8
CENTRE
100
AcDbLine
 10
7676.889878124288
 20
-3070.24476633
 30
0.0
 11
7066.60595847255
 21
-3070.24476633
 31
0.0
  0
LINE
  5
6E
330
2
100
AcDbEntity
  8
CENTRE
100
AcDbLine
 10
7676.889878124288
 20
-3405.790098094853
 30
0.0
 11
7059.676767673733
 21
-3405.790098094853
 31
0.0
  0
LINE
  5
6F
330
2
100
AcDbEntity
  8
CENTRE
100
AcDbLine
 10
7454.594664194271
 20
-3190.244766329999
 30
0.0
 11
7454.594664194271
 21
-2950.244766329999
 31
0.0
  0
LINE
  5
70
330
2
100
AcDbEntity
  8
ANCON-CONCRETE
100
AcDbLine
 10
7359.59466419427
 20
-2923.775990269025
 30
0.0
 11
7359.59466419427
 21
-3216.713542390973
 31
0.0
  0
LINE
  5
71
330
2
100
AcDbEntity
  8
ANCON-CONCRETE
100
AcDbLine
 10
7339.594664194271
 20
-2923.775990269025
 30
0.0
 11
7339.594664194271
 21
-3216.713542390973
 31
0.0
  0
LINE
  5
72
330
2
100
AcDbEntity
  8
ANCON-CONCRETE
100
AcDbLine
 10
7359.59466419427
 20
-3259.321322033878
 30
0.0
 11
7359.59466419427
 21
-3552.258874155826
 31
0.0
  0
LINE
  5
73
330
2
100
AcDbEntity
  8
ANCON-CONCRETE
100
AcDbLine
 10
7339.594664194271
 20
-3259.321322033879
 30
0.0
 11
7339.594664194271
 21
-3552.258874155826
 31
0.0
  0
LINE
  5
74
330
2
100
AcDbEntity
  8
ANCON-HLD
100
AcDbLine
 10
7333.594664194272
 20
-3099.24476633
 30
0.0
 11
7155.594664194272
 21
-3099.24476633
 31
0.0
  0
LINE
  5
75
330
2
100
AcDbEntity
  8
ANCON-HLD
100
AcDbLine
 10
7333.594664194272
 20
-3041.24476633
 30
0.0
 11
7155.594664194272
 21
-3041.24476633
 31
0.0
  0
ARC
  5
76
330
2
100
AcDbEntity
  8
ANCON-HLD
100
AcDbCircle
 10
7244.594664194273
 20
-3045.244766330001
 30
0.0
 40
129.0
100
AcDbArc
 50
238.034281249206
 51
301.965718750794
  0
ARC
  5
77
330
2
100
AcDbEntity
  8
ANCON-HLD
100
AcDbCircle
 10
7244.594664194273
 20
-3045.244766330001
 30
0.0
 40
135.0
100
AcDbArc
 50
238.034281249206
 51
301.965718750794
  0
ARC
  5
78
330
2
100
AcDbEntity
  8
ANCON-HLD
100
AcDbCircle
 10
7244.594664194273
 20
-3095.244766330001
 30
0.0
 40
129.0
100
AcDbArc
 50
58.03428124920603
 51
121.965718750794
  0
ARC
  5
79
330
2
100
AcDbEntity
  8
ANCON-HLD
100
AcDbCircle
 10
7244.594664194273
 20
-3095.244766330001
 30
0.0
 40
135.0
100
AcDbArc
 50
58.03428124920603
 51
121.965718750794
  0
LINE
  5
7A
330
2
100
AcDbEntity
  8
ANCON-HLD
100
AcDbLine
 10
7333.594664194269
 20
-3300.790098094854
 30
0.0
 11
7149.594664194271
 21
-3300.790098094854
 31
0.0
  0
LINE
  5
7B
330
2
100
AcDbEntity
  8
ANCON-HLD
100
AcDbLine
 10
7333.594664194269
 20
-3510.790098094853
 30
0.0
 11
7149.594664194271
 21
-3510.790098094854
 31
0.0
  0
LINE
  5
7C
330
2
100
AcDbEntity
  8
ANCON-HLD
100
AcDbLine
 10
7333.594664194269
 20
-3522.790098094853
 30
0.0
 11
7333.594664194269
 21
-3288.790098094854
 31
0.0
  0
LINE
  5
7D
330
2
100
AcDbEntity
  8
ANCON-HLD
100
AcDbLine
 10
7339.594664194271
 20
-3522.790098094853
 30
0.0
 11
7339.59466419427
 21
-3288.790098094854
 31
0.0
  0
LINE
  5
7E
330
2
100
AcDbEntity
  8
ANCON-HLD
100
AcDbLine
 10
7333.594664194269
 20
-3522.790098094853
 30
0.0
 11
7339.59466419427
 21
-3522.790098094853
 31
0.0
  0
LINE
  5
7F
330
2
100
AcDbEntity
  8
CENTRE
100
AcDbLine
 10
7888.859408119365
 20
-3190.24476633
 30
0.0
 11
7888.859408119365
 21
-2950.24476633
 31
0.0
  0
LINE
  5
80
330
2
100
AcDbEntity
  8
ANCON-HLD
100
AcDbLine
 10
7783.859408119365
 20
-2990.24476633
 30
0.0
 11
7783.859408119365
 21
-2960.24476633
 31
0.0
  0
LINE
  5
81
330
2
100
AcDbEntity
  8
ANCON-HLD
100
AcDbLine
 10
7993.859408119364
 20
-2990.24476633
 30
0.0
 11
7993.859408119364
 21
-2960.24476633
 31
0.0
  0
LINE
  5
82
330
2
100
AcDbEntity
  8
CENTRE
100
AcDbLine
 10
7853.859408119364
 20
-3070.244766329999
 30
0.0
 11
7923.859408119364
 21
-3070.244766329999
 31
0.0
  0
CIRCLE
  5
83
330
2
100
AcDbEntity
  8
ANCON-HLD
100
AcDbCircle
 10
7888.859408119365
 20
-3070.244766329999
 30
0.0
 40
28.99999999999977
  0
LINE
  5
84
330
2
100
AcDbEntity
  8
ANCON-HLD
100
AcDbLine
 10
7771.859408119365
 20
-3150.24476633
 30
0.0
 11
8005.859408119365
 21
-3150.24476633
 31
0.0
  0
LINE
  5
85
330
2
100
AcDbEntity
  8
ANCON-HLD
100
AcDbLine
 10
7771.859408119365
 20
-2990.24476633
 30
0.0
 11
8005.859408119365
 21
-2990.24476633
 31
0.0
  0
LINE
  5
86
330
2
100
AcDbEntity
  8
ANCON-HLD
100
AcDbLine
 10
8005.859408119365
 20
-3150.24476633
 30
0.0
 11
8005.859408119365
 21
-2990.24476633
 31
0.0
  0
LINE
  5
87
330
2
100
AcDbEntity
  8
ANCON-HLD
100
AcDbLine
 10
7993.859408119364
 20
-3180.24476633
 30
0.0
 11
7993.859408119364
 21
-3150.24476633
 31
0.0
  0
LINE
  5
88
330
2
100
AcDbEntity
  8
CENTRE
 48
0.125
100
AcDbLine
 10
8000.859408119366
 20
-3140.24476633
 30
0.0
 11
8000.859408119366
 21
-3150.24476633
 31
0.0
  0
LINE
  5
89
330
2
100
AcDbEntity
  8
CENTRE
 48
0.125
100
AcDbLine
 10
7995.859408119364
 20
-3145.24476633
 30
0.0
 11
8005.859408119365
 21
-3145.24476633
 31
0.0
  0
CIRCLE
  5
8A
330
2
100
AcDbEntity
  8
ANCON-HLD
100
AcDbCircle
 10
8000.859408119366
 20
-3145.24476633
 30
0.0
 40
2.5
  0
LINE
  5
8B
330
2
100
AcDbEntity
  8
CENTRE
 48
0.125
100
AcDbLine
 10
7995.859408119364
 20
-2995.24476633
 30
0.0
 11
8005.859408119365
 21
-2995.24476633
 31
0.0
  0
LINE
  5
8C
330
2
100
AcDbEntity
  8
CENTRE
 48
0.125
100
AcDbLine
 10
8000.859408119366
 20
-2990.24476633
 30
0.0
 11
8000.859408119366
 21
-3000.24476633
 31
0.0
  0
CIRCLE
  5
8D
330
2
100
AcDbEntity
  8
ANCON-HLD
100
AcDbCircle
 10
8000.859408119366
 20
-2995.24476633
 30
0.0
 40
2.5
  0
LINE
  5
8E
330
2
100
AcDbEntity
  8
ANCON-HLD
100
AcDbLine
 10
7333.594664194269
 20
-3288.790098094854
 30
0.0
 11
7339.59466419427
 21
-3288.790098094854
 31
0.0
  0
CIRCLE
  5
8F
330
2
100
AcDbEntity
  8
ANCON-HLD
100
AcDbCircle
 10
7888.859408119365
 20
-3070.244766329999
 30
0.0
 40
25.99999999999977
  0
LINE
  5
90
330
2
100
AcDbEntity
  8
ANCON-HLD
100
AcDbLine
 10
7333.594664194272
 20
-3150.244766330001
 30
0.0
 11
7333.594664194272
 21
-2990.244766330001
 31
0.0
  0
LINE
  5
91
330
2
100
AcDbEntity
  8
ANCON-HLD
100
AcDbLine
 10
7339.594664194271
 20
-3150.244766330001
 30
0.0
 11
7339.594664194271
 21
-2990.244766330001
 31
0.0
  0
LINE
  5
92
330
2
100
AcDbEntity
  8
ANCON-HLD
100
AcDbLine
 10
7771.859408119365
 20
-3150.24476633
 30
0.0
 11
7771.859408119365
 21
-2990.24476633
 31
0.0
  0
LINE
  5
93
330
2
100
AcDbEntity
  8
ANCON-HLD
100
AcDbLine
 10
7783.859408119365
 20
-3180.24476633
 30
0.0
 11
7783.859408119365
 21
-3150.24476633
 31
0.0
  0
LINE
  5
94
330
2
100
AcDbEntity
  8
CENTRE
 48
0.125
100
AcDbLine
 10
7771.859408119365
 20
-3145.24476633
 30
0.0
 11
7781.859408119363
 21
-3145.24476633
 31
0.0
  0
LINE
  5
95
330
2
100
AcDbEntity
  8
CENTRE
 48
0.125
100
AcDbLine
 10
7776.859408119364
 20
-3140.24476633
 30
0.0
 11
7776.859408119364
 21
-3150.24476633
 31
0.0
  0
CIRCLE
  5
96
330
2
100
AcDbEntity
  8
ANCON-HLD
100
AcDbCircle
 10
7776.859408119364
 20
-3145.24476633
 30
0.0
 40
2.5
  0
LINE
  5
97
330
2
100
AcDbEntity
  8
OUTLINE
100
AcDbLine
 10
7333.594664194274
 20
-3141.104476013357
 30
0.0
 11
7328.314664194273
 21
-3138.254633912468
 31
0.0
  0
LINE
  5
9B
330
2
100
AcDbEntity
  8
ANCON-HLD
100
AcDbLine
 10
7339.594664194271
 20
-3150.244766330001
 30
0.0
 11
7333.594664194272
 21
-3150.244766330001
 31
0.0
  0
ARC
  5
9C
330
2
100
AcDbEntity
  8
ANCON-HLD
100
AcDbCircle
 10
7289.594664194272
 20
-3117.355791839281
 30
0.0
 40
44.0
100
AcDbArc
 50
301.965718750794
 51
331.6423634236532
  0
ARC
  5
9D
330
2
100
AcDbEntity
  8
ANCON-HLD
100
AcDbCircle
 10
7289.594664194272
 20
-3117.355791839281
 30
0.0
 40
50.0
100
AcDbArc
 50
301.965718750794
 51
331.6423634236532
  0
LINE
  5
9E
330
2
100
AcDbEntity
  8
ANCON-HLD
100
AcDbLine
 10
7333.594664194274
 20
-3141.104476013356
 30
0.0
 11
7328.314664194273
 21
-3138.254633912465
 31
0.0
  0
LINE
  5
9F
330
2
100
AcDbEntity
  8
CENTRE
 48
0.125
100
AcDbLine
 10
7776.859408119364
 20
-2990.24476633
 30
0.0
 11
7776.859408119364
 21
-3000.24476633
 31
0.0
  0
LINE
  5
A0
330
2
100
AcDbEntity
  8
CENTRE
 48
0.125
100
AcDbLine
 10
7771.859408119365
 20
-2995.24476633
 30
0.0
 11
7781.859408119363
 21
-2995.24476633
 31
0.0
  0
CIRCLE
  5
A1
330
2
100
AcDbEntity
  8
ANCON-HLD
100
AcDbCircle
 10
7776.859408119364
 20
-2995.24476633
 30
0.0
 40
2.5
  0
LINE
  5
A2
330
2
100
AcDbEntity
  8
CENTRE
 48
0.125
100
AcDbLine
 10
7289.594664194274
 20
-3076.244766330001
 30
0.0
 11
7289.594664194274
 21
-3064.244766330001
 31
0.0
  0
CIRCLE
  5
A3
330
2
100
AcDbEntity
  8
ANCON-HLD
100
AcDbCircle
 10
7289.594664194274
 20
-3070.244766330001
 30
0.0
 40
3.0
  0
ARC
  5
A4
330
2
100
AcDbEntity
  8
ANCON-HLD
100
AcDbCircle
 10
7289.594664194272
 20
-3023.133740820721
 30
0.0
 40
50.0
100
AcDbArc
 50
28.3576365763468
 51
58.03428124920603
  0
ARC
  5
A5
330
2
100
AcDbEntity
  8
ANCON-HLD
100
AcDbCircle
 10
7289.594664194272
 20
-3023.133740820721
 30
0.0
 40
44.0
100
AcDbArc
 50
28.3576365763468
 51
58.03428124920603
  0
LINE
  5
A6
330
2
100
AcDbEntity
  8
ANCON-HLD
100
AcDbLine
 10
7339.594664194271
 20
-2990.244766330001
 30
0.0
 11
7333.594664194272
 21
-2990.244766330001
 31
0.0
  0
LINE
  5
A7
330
2
100
AcDbEntity
  8
ANCON-HLD
100
AcDbLine
 10
7783.859408119365
 20
-2960.24476633
 30
0.0
 11
7868.859408119369
 21
-2960.24476633
 31
0.0
  0
LINE
  5
A8
330
2
100
AcDbEntity
  8
ANCON-HLD
100
AcDbLine
 10
7149.594664194271
 20
-3510.790098094854
 30
0.0
 11
7149.594664194271
 21
-3300.790098094854
 31
0.0
  0
LINE
  5
A9
330
2
100
AcDbEntity
  8
CENTRE
 48
0.5
100
AcDbLine
 10
7244.59466419427
 20
-3430.790098094855
 30
0.0
 11
7244.59466419427
 21
-3380.790098094855
 31
0.0
  0
CIRCLE
  5
AA
330
2
100
AcDbEntity
  8
ANCON-HLD
100
AcDbCircle
 10
7244.59466419427
 20
-3405.790098094853
 30
0.0
 40
20.0
  0
LINE
  5
AB
330
2
100
AcDbEntity
  8
ANCON-HLD
100
AcDbLine
 10
7149.594664194271
 20
-3376.790098094855
 30
0.0
 11
7068.594664194272
 21
-3376.790098094853
 31
0.0
  0
LINE
  5
AC
330
2
100
AcDbEntity
  8
ANCON-HLD
100
AcDbLine
 10
7149.594664194271
 20
-3434.790098094853
 30
0.0
 11
7068.594664194272
 21
-3434.790098094853
 31
0.0
  0
LINE
  5
AD
330
2
100
AcDbEntity
  8
ANCON-HLD
100
AcDbLine
 10
7068.594664194272
 20
-3435.790098094853
 30
0.0
 11
7068.594664194272
 21
-3375.790098094854
 31
0.0
  0
LINE
  5
AE
330
2
100
AcDbEntity
  8
ANCON-HLD
100
AcDbLine
 10
7043.594664194272
 20
-3376.790098094855
 30
0.0
 11
7043.594664194272
 21
-3434.790098094853
 31
0.0
  0
LINE
  5
AF
330
2
100
AcDbEntity
  8
ANCON-HLD
100
AcDbLine
 10
7068.594664194272
 20
-3435.790098094853
 30
0.0
 11
7044.594664194272
 21
-3435.790098094853
 31
0.0
  0
ARC
  5
B0
330
2
100
AcDbEntity
  8
ANCON-HLD
100
AcDbCircle
 10
7044.594664194272
 20
-3434.790098094853
 30
0.0
 40
1.0
100
AcDbArc
 50
180.0
 51
270.0
  0
LINE
  5
B1
330
2
100
AcDbEntity
  8
ANCON-HLD
100
AcDbLine
 10
7068.594664194272
 20
-3375.790098094854
 30
0.0
 11
7044.594664194272
 21
-3375.790098094854
 31
0.0
  0
ARC
  5
B2
330
2
100
AcDbEntity
  8
OUTLINE
  6
PHANTM1_10
100
AcDbCircle
 10
7044.594664194272
 20
-3376.790098094855
 30
0.0
 40
1.0
100
AcDbArc
 50
90.0
 51
180.0
  0
ARC
  5
B4
330
2
100
AcDbEntity
  8
ANCON-HLD
100
AcDbCircle
 10
7199.594664194272
 20
-3117.355791839281
 30
0.0
 40
50.0
100
AcDbArc
 50
180.0
 51
238.034281249206
  0
ARC
  5
B5
330
2
100
AcDbEntity
  8
ANCON-HLD
100
AcDbCircle
 10
7199.594664194272
 20
-3023.133740820721
 30
0.0
 40
50.0
100
AcDbArc
 50
121.965718750794
 51
180.0
  0
LINE
  5
B6
330
2
100
AcDbEntity
  8
ANCON-HLD
100
AcDbLine
 10
7155.594664194272
 20
-3117.355791839281
 30
0.0
 11
7155.594664194272
 21
-3023.133740820721
 31
0.0
  0
ARC
  5
B7
330
2
100
AcDbEntity
  8
ANCON-HLD
100
AcDbCircle
 10
7199.594664194272
 20
-3117.355791839281
 30
0.0
 40
44.0
100
AcDbArc
 50
180.0
 51
238.034281249206
  0
ARC
  5
B8
330
2
100
AcDbEntity
  8
ANCON-HLD
100
AcDbCircle
 10
7199.594664194272
 20
-3023.133740820721
 30
0.0
 40
44.0
100
AcDbArc
 50
121.965718750794
 51
180.0
  0
LINE
  5
B9
330
2
100
AcDbEntity
  8
ANCON-HLD
100
AcDbLine
 10
7068.594664194272
 20
-3100.24476633
 30
0.0
 11
7068.594664194273
 21
-3040.24476633
 31
0.0
  0
LINE
  5
BA
330
2
100
AcDbEntity
  8
ANCON-HLD
100
AcDbLine
 10
7043.594664194273
 20
-3041.24476633
 30
0.0
 11
7043.594664194272
 21
-3099.24476633
 31
0.0
  0
LINE
  5
BB
330
2
100
AcDbEntity
  8
ANCON-HLD
100
AcDbLine
 10
7149.594664194272
 20
-3117.355791839281
 30
0.0
 11
7149.594664194272
 21
-3023.133740820721
 31
0.0
  0
LINE
  5
BC
330
2
100
AcDbEntity
  8
ANCON-HLD
100
AcDbLine
 10
7149.594664194272
 20
-3099.24476633
 30
0.0
 11
7068.594664194272
 21
-3099.24476633
 31
0.0
  0
LINE
  5
BD
330
2
100
AcDbEntity
  8
ANCON-HLD
100
AcDbLine
 10
7068.594664194272
 20
-3100.24476633
 30
0.0
 11
7044.594664194272
 21
-3100.24476633
 31
0.0
  0
ARC
  5
BE
330
2
100
AcDbEntity
  8
ANCON-HLD
100
AcDbCircle
 10
7044.594664194272
 20
-3099.24476633
 30
0.0
 40
1.0
100
AcDbArc
 50
180.0
 51
270.0
  0
LINE
  5
BF
330
2
100
AcDbEntity
  8
ANCON-HLD
100
AcDbLine
 10
7149.594664194272
 20
-3041.24476633
 30
0.0
 11
7068.594664194273
 21
-3041.24476633
 31
0.0
  0
LINE
  5
C0
330
2
100
AcDbEntity
  8
ANCON-HLD
100
AcDbLine
 10
7068.594664194273
 20
-3040.24476633
 30
0.0
 11
7044.594664194274
 21
-3040.24476633
 31
0.0
  0
ARC
  5
C1
330
2
100
AcDbEntity
  8
ANCON-HLD
100
AcDbCircle
 10
7044.594664194274
 20
-3041.24476633
 30
0.0
 40
1.0
100
AcDbArc
 50
90.0
 51
180.0
  0
LINE
  5
C2
330
2
100
AcDbEntity
  8
CENTRE
100
AcDbLine
 10
7244.594664194273
 20
-3190.24476633
 30
0.0
 11
7244.594664194273
 21
-2950.24476633
 31
0.0
  0
LINE
  5
C3
330
2
100
AcDbEntity
  8
CENTRE
 48
0.125
100
AcDbLine
 10
7331.446334638766
 20
-2995.244766330001
 30
0.0
 11
7341.446334638766
 21
-2995.244766330001
 31
0.0
  0
LINE
  5
C4
330
2
100
AcDbEntity
  8
CENTRE
 48
0.125
100
AcDbLine
 10
7331.446334638766
 20
-3145.244766330001
 30
0.0
 11
7341.446334638766
 21
-3145.244766330001
 31
0.0
  0
LINE
  5
C5
330
2
100
AcDbEntity
  8
CENTRE
 48
0.125
100
AcDbLine
 10
7331.446334638764
 20
-3293.790098094854
 30
0.0
 11
7341.446334638764
 21
-3293.790098094854
 31
0.0
  0
LINE
  5
C6
330
2
100
AcDbEntity
  8
CENTRE
 48
0.125
100
AcDbLine
 10
7331.446334638764
 20
-3517.790098094855
 30
0.0
 11
7341.446334638764
 21
-3517.790098094855
 31
0.0
  0
LINE
  5
C7
330
2
100
AcDbEntity
  8
ANCON-HLD
100
AcDbLine
 10
7328.314664194282
 20
-3002.234898747552
 30
0.0
 11
7333.594664194285
 21
-2999.385056646666
 31
0.0
  0
ELLIPSE
  5
C8
330
2
100
AcDbEntity
  8
ANCON-HLD
100
AcDbEllipse
 10
7888.859408119365
 20
-2960.24476633
 30
0.0
 11
19.99999999999909
 21
0.0
 31
0.0
210
0.0
220
0.0
230
-1.0
 40
0.0744850385906864
 41
0.0
 42
3.141592653589793
  0
LINE
  5
C9
330
2
100
AcDbEntity
  8
ANCON-HLD
100
AcDbLine
 10
7908.859408119365
 20
-2960.24476633
 30
0.0
 11
7993.859408119364
 21
-2960.24476633
 31
0.0
  0
LINE
  5
CA
330
2
100
AcDbEntity
  8
ANCON-HLD
100
AcDbLine
 10
7908.859408119365
 20
-3180.244766329999
 30
0.0
 11
7993.859408119364
 21
-3180.244766329999
 31
0.0
  0
ELLIPSE
  5
CB
330
2
100
AcDbEntity
  8
ANCON-HLD
100
AcDbEllipse
 10
7888.859408119365
 20
-3180.244766329999
 30
0.0
 11
19.99999999999909
 21
0.0
 31
0.0
210
0.0
220
0.0
230
1.0
 40
0.0744850385906864
 41
0.0
 42
3.141592653589793
  0
LINE
  5
CC
330
2
100
AcDbEntity
  8
ANCON-HLD
100
AcDbLine
 10
7783.859408119365
 20
-3180.244766329999
 30
0.0
 11
7868.859408119369
 21
-3180.244766329999
 31
0.0
  0
LINE
  5
CD
330
2
100
AcDbEntity
  8
CENTRE
100
AcDbLine
 10
7035.437315344889
 20
-3070.24476633
 30
0.0
 11
7348.541780888813
 21
-3070.24476633
 31
0.0
  0
LINE
  5
CE
330
2
100
AcDbEntity
  8
CENTRE
100
AcDbLine
 10
7035.437315344887
 20
-3405.790098094853
 30
0.0
 11
7348.54178088881
 21
-3405.790098094853
 31
0.0
  0
LINE
  5
CF
330
2
100
AcDbEntity
  8
ANCON-TEXT
100
AcDbLine
 10
7291.116578240388
 20
-3618.268899035574
 30
0.0
 11
7291.116578240388
 21
-3671.367145169667
 31
0.0
  0
TEXT
  5
D3
330
2
100
AcDbEntity
  8
ANCON-TEXT
100
AcDbText
 10
7253.194793231982
 20
-3660.551588076568
 30
0.0
 40
5.0
  1
???
  7
ROMANS
 72
     4
 11
7259.623364660554
 21
-3658.051588076568
 31
0.0
100
AcDbText
  0
LINE
  5
D4
330
2
100
AcDbEntity
  8
ANCON-TEXT
100
AcDbLine
 10
7226.245994105588
 20
-3618.268899035574
 30
0.0
 11
7226.245994105588
 21
-3671.367145169667
 31
0.0
  0
TEXT
  5
D5
330
2
100
AcDbEntity
  8
ANCON-TEXT
100
AcDbText
 10
7231.766221803411
 20
-3628.529784697984
 30
0.0
 40
5.0
  1
SERVICEABILITY
  7
ROMANS
 72
     4
 11
7259.623364660554
 21
-3626.029784697984
 31
0.0
100
AcDbText
  0
TEXT
  5
D6
330
2
100
AcDbEntity
  8
ANCON-TEXT
100
AcDbText
 10
7234.86145989865
 20
-3639.473063636563
 30
0.0
 40
5.0
  1
LOAD ( kN )
  7
ROMANS
 72
     4
 11
7259.623364660554
 21
-3637.330206493705
 31
0.0
100
AcDbText
  0
LINE
  5
D7
330
2
100
AcDbEntity
  8
ANCON-TEXT
100
AcDbLine
 10
7165.737900548525
 20
-3618.268899035574
 30
0.0
 11
7165.737900548525
 21
-3671.367145169667
 31
0.0
  0
TEXT
  5
D8
330
2
100
AcDbEntity
  8
ANCON-TEXT
100
AcDbText
 10
7123.16837993569
 20
-3628.534615195115
 30
0.0
 40
5.0
  1
HLD REF:
  7
ROMANS
 72
     4
 11
7140.906475173785
 21
-3626.034615195115
 31
0.0
100
AcDbText
  0
TEXT
  5
D9
330
2
100
AcDbEntity
  8
ANCON-TEXT
100
AcDbText
 10
7125.099555136745
 20
-3660.551588076568
 30
0.0
 40
5.0
  1
HLD 52
  7
ROMANS
 72
     4
 11
7139.623364660554
 21
-3658.051588076568
 31
0.0
100
AcDbText
  0
LINE
  5
DA
330
2
100
AcDbEntity
  8
ANCON-TEXT
100
AcDbLine
 10
7115.737900548525
 20
-3618.268899035574
 30
0.0
 11
7115.737900548525
 21
-3671.367145169667
 31
0.0
  0
LINE
  5
DB
330
2
100
AcDbEntity
  8
ANCON-TEXT
100
AcDbLine
 10
7115.737900548525
 20
-3671.367145169667
 30
0.0
 11
7291.116578240388
 21
-3671.367145169667
 31
0.0
  0
LINE
  5
DC
330
2
100
AcDbEntity
  8
ANCON-TEXT
100
AcDbLine
 10
7115.737900548525
 20
-3644.339660094619
 30
0.0
 11
7291.116578240388
 21
-3644.339660094619
 31
0.0
  0
LINE
  5
DD
330
2
100
AcDbEntity
  8
ANCON-TEXT
100
AcDbLine
 10
7115.737900548525
 20
-3618.268899035574
 30
0.0
 11
7291.116578240388
 21
-3618.268899035574
 31
0.0
  0
TEXT
  5
DE
330
2
100
AcDbEntity
  8
ANCON-TEXT
100
AcDbText
 10
7170.841568913414
 20
-3628.534615195115
 30
0.0
 40
5.0
  1
DESIGN JOINT
  7
ROMANS
 72
     4
 11
7196.912997484843
 21
-3626.034615195115
 31
0.0
100
AcDbText
  0
TEXT
  5
DF
330
2
100
AcDbEntity
  8
ANCON-TEXT
100
AcDbText
 10
7187.242412279601
 20
-3660.551588076568
 30
0.0
 40
5.0
  1
?? MM
  7
ROMANS
 72
     4
 11
7199.623364660554
 21
-3658.051588076568
 31
0.0
100
AcDbText
  0
TEXT
  5
E0
330
2
100
AcDbEntity
  8
ANCON-TEXT
100
AcDbText
 10
7186.317759389604
 20
-3639.432238582735
 30
0.0
 40
5.0
  1
WIDTH
  7
ROMANS
 72
     4
 11
7196.912997484843
 21
-3636.932238582735
 31
0.0
100
AcDbText
  0
LINE
  5
E1
330
2
100
AcDbEntity
  8
ANCON-TEXT
100
AcDbLine
 10
7630.100073598182
 20
-3650.152624809449
 30
0.0
 11
7630.100073598182
 21
-3703.186317394999
 31
0.0
  0
LINE
  5
E2
330
2
100
AcDbEntity
  8
ANCON-TEXT
100
AcDbLine
 10
7495.202974414303
 20
-3620.786111142355
 30
0.0
 11
7495.202974414303
 21
-3632.704086434356
 31
0.0
  0
LINE
  5
E3
330
2
100
AcDbEntity
  8
ANCON-TEXT
100
AcDbLine
 10
7427.613123491541
 20
-3620.786111142355
 30
0.0
 11
7427.613123491541
 21
-3632.704086434356
 31
0.0
  0
LINE
  5
E4
330
2
100
AcDbEntity
  8
ANCON-TEXT
100
AcDbLine
 10
7427.613123491541
 20
-3650.152624809449
 30
0.0
 11
7427.613123491541
 21
-3703.186317394999
 31
0.0
  0
TEXT
  5
E5
330
2
100
AcDbEntity
  8
ANCON-TEXT
100
AcDbText
 10
7432.882584976676
 20
-3699.48326696357
 30
0.0
 40
5.0
  1
LOAD OF ??? kN
  7
ROMANS
 72
     4
 11
7465.501632595724
 21
-3696.98326696357
 31
0.0
100
AcDbText
  0
LINE
  5
E6
330
2
100
AcDbEntity
  8
ANCON-TEXT
100
AcDbLine
 10
7427.613123491541
 20
-3620.786111142355
 30
0.0
 11
7495.202974414303
 21
-3620.786111142355
 31
0.0
  0
LINE
  5
E7
330
2
100
AcDbEntity
  8
ANCON-TEXT
100
AcDbLine
 10
7427.613123491541
 20
-3632.704086434356
 30
0.0
 11
7495.202974414303
 21
-3632.704086434356
 31
0.0
  0
TEXT
  5
E8
330
2
100
AcDbEntity
  8
ANCON-TEXT
100
AcDbText
 10
7432.464376022076
 20
-3629.423221258198
 30
0.0
 40
5.0
  1
ANCON HLD 52
  7
ROMANS
 72
     4
 11
7461.631042688743
 21
-3626.923221258198
 31
0.0
100
AcDbText
  0
TEXT
  5
E9
330
2
100
AcDbEntity
  8
ANCON-TEXT
100
AcDbText
 10
7300.184387810256
 20
-3659.357675722694
 30
0.0
 40
5.0
  1
SPECIFICATION BY DESCRIPTION
  7
ROMANS
 72
     4
 11
7359.827244953113
 21
-3656.857675722694
 31
0.0
100
AcDbText
  0
TEXT
  5
EA
330
2
100
AcDbEntity
  8
ANCON-TEXT
100
AcDbText
 10
7300.040751200629
 20
-3629.423221258198
 30
0.0
 40
5.0
  1
SPECIFICATION BY PRODUCT
  7
ROMANS
 72
     4
 11
7353.493132153009
 21
-3626.923221258198
 31
0.0
100
AcDbText
  0
TEXT
  5
EB
330
2
100
AcDbEntity
  8
ANCON-TEXT
100
AcDbText
 10
7431.904856696381
 20
-3659.393424349218
 30
0.0
 40
5.0
  1
TWO PART STAINLESS STEEL SHEAR CONNECTOR
  7
ROMANS
 72
     4
 11
7524.523904315429
 21
-3656.893424349218
 31
0.0
100
AcDbText
  0
TEXT
  5
EC
330
2
100
AcDbEntity
  8
ANCON-TEXT
100
AcDbText
 10
7431.183672290325
 20
-3669.498136675009
 30
0.0
 40
5.0
  1
COMPRISING SLEEVE AND DOWEL COMPONENT
  7
ROMANS
 72
     4
 11
7519.159862766516
 21
-3666.998136675009
 31
0.0
100
AcDbText
  0
TEXT
  5
ED
330
2
100
AcDbEntity
  8
ANCON-TEXT
100
AcDbText
 10
7431.696804220334
 20
-3689.448341798608
 30
0.0
 40
5.0
  1
AND CAPABLE OF TRANSFERRING A SERVICEABILITY
  7
ROMANS
 72
     4
 11
7529.077756601286
 21
-3686.948341798608
 31
0.0
100
AcDbText
  0
LINE
  5
EE
330
2
100
AcDbEntity
  8
ANCON-TEXT
100
AcDbLine
 10
7427.613123491541
 20
-3703.186317394999
 30
0.0
 11
7630.100073598182
 21
-3703.186317394999
 31
0.0
  0
LINE
  5
EF
330
2
100
AcDbEntity
  8
ANCON-TEXT
100
AcDbLine
 10
7427.613123491541
 20
-3650.152624809449
 30
0.0
 11
7630.100073598182
 21
-3650.152624809449
 31
0.0
  0
TEXT
  5
F0
330
2
100
AcDbEntity
  8
ANCON-TEXT
100
AcDbText
 10
7431.242369050382
 20
-3679.399284384679
 30
0.0
 40
5.0
  1
SUITABLE FOR A DESIGN JOINT WIDTH OF ?? MM
  7
ROMANS
 72
     4
 11
7526.123321431335
 21
-3676.899284384679
 31
0.0
100
AcDbText
  0
ENDSEC
  0
SECTION
  2
OBJECTS
  0
DICTIONARY
  5
C
330
0
100
AcDbDictionary
281
     1
  3
ACAD_COLOR
350
33
  3
ACAD_GROUP
350
2F
  3
ACAD_LAYOUT
350
10
  3
ACAD_MATERIAL
350
32
  3
ACAD_MLINESTYLE
350
30
  3
ACAD_PLOTSETTINGS
350
31
  3
ACAD_PLOTSTYLENAME
350
B
  3
ACAD_TABLESTYLE
350
34
  3
ACAD_VISUALSTYLE
350
28
  3
ACDBHEADERROUNDTRIPXREC
350
FE
  3
AcDbVariableDictionary
350
F3
  0
DICTIONARY
  5
25
330
23
100
AcDbDictionary
280
     1
281
     1
  3
ACAD_XREC_ROUNDTRIP
360
26
  0
DICTIONARY
  5
19
330
18
100
AcDbDictionary
280
     1
281
     1
  3
ACAD_LAYERSTATES
360
1A
  0
DICTIONARY
  5
8
330
7
100
AcDbDictionary
280
     1
281
     1
  3
ADSK_XREC_LAYER_RECONCILED
360
9
  0
DICTIONARY
  5
36
330
35
100
AcDbDictionary
280
     1
281
     1
  3
ADSK_XREC_LAYER_RECONCILED
360
37
  0
DICTIONARY
  5
D1
330
D0
100
AcDbDictionary
280
     1
281
     1
  3
ADSK_XREC_LAYER_RECONCILED
360
D2
  0
DICTIONARY
  5
99
330
98
100
AcDbDictionary
280
     1
281
     1
  3
ADSK_XREC_LAYER_RECONCILED
360
9A
  0
DICTIONARY
  5
6B
330
6A
100
AcDbDictionary
280
     1
281
     1
  3
ADSK_XREC_LAYER_RECONCILED
360
6C
  0
DICTIONARY
  5
3
330
2
100
AcDbDictionary
280
     1
281
     1
  3
ACAD_LAYOUTSELFREF
360
4
  3
ACAD_SORTENTS
360
F1
  0
DICTIONARY
  5
13
330
12
100
AcDbDictionary
280
     1
281
     1
  3
ACAD_LAYOUTSELFREF
360
14
  0
DICTIONARY
  5
33
102
{ACAD_REACTORS
330
C
102
}
330
C
100
AcDbDictionary
281
     1
  0
DICTIONARY
  5
2F
102
{ACAD_REACTORS
330
C
102
}
330
C
100
AcDbDictionary
281
     1
  0
DICTIONARY
  5
10
102
{ACAD_REACTORS
330
C
102
}
330
C
100
AcDbDictionary
281
     1
  3
Layout1
350
17
  3
Model
350
F
  0
DICTIONARY
  5
32
102
{ACAD_REACTORS
330
C
102
}
330
C
100
AcDbDictionary
281
     1
  0
DICTIONARY
  5
30
102
{ACAD_REACTORS
330
C
102
}
330
C
100
AcDbDictionary
281
     1
  3
STANDARD
350
38
  0
DICTIONARY
  5
31
102
{ACAD_REACTORS
330
C
102
}
330
C
100
AcDbDictionary
281
     1
  0
ACDBDICTIONARYWDFLT
  5
B
102
{ACAD_REACTORS
330
C
102
}
330
C
100
AcDbDictionary
281
     1
  3
Normal
350
A
100
AcDbDictionaryWithDefault
340
A
  0
DICTIONARY
  5
34
102
{ACAD_REACTORS
330
C
102
}
330
C
100
AcDbDictionary
281
     1
  3
Standard
350
39
  0
DICTIONARY
  5
28
102
{ACAD_REACTORS
330
C
102
}
330
C
100
AcDbDictionary
281
     1
  3
2dWireframe
350
27
  0
DICTIONARY
  5
FE
102
{ACAD_REACTORS
330
C
102
}
330
C
100
AcDbDictionary
281
     1
  0
DICTIONARY
  5
F3
102
{ACAD_REACTORS
330
C
102
}
330
C
100
AcDbDictionary
281
     1
  3
CTABLESTYLE
350
F4
  3
DIMASSOC
350
FB
  3
HIDETEXT
350
FA
  3
PROJECTNAME
350
FC
  0
XRECORD
  5
26
102
{ACAD_REACTORS
330
25
102
}
330
25
100
AcDbXrecord
280
     1
102
VTR_0.000_0.000_1.000_1.000_VISUALSTYLE
340
27
102
VTR_0.000_0.000_1.000_1.000_GRIDDISPLAY
 70
     3
102
VTR_0.000_0.000_1.000_1.000_GRIDMAJOR
 70
     5
102
VTR_0.000_0.000_1.000_1.000_DEFAULTLIGHTING
280
     1
102
VTR_0.000_0.000_1.000_1.000_DEFAULTLIGHTINGTYPE
 70
     1
102
VTR_0.000_0.000_1.000_1.000_BRIGHTNESS
141
0.0
102
VTR_0.000_0.000_1.000_1.000_CONTRAST
142
0.0
  0
DICTIONARY
  5
1A
102
{ACAD_REACTORS
330
19
102
}
330
19
100
AcDbDictionary
281
     1
  0
XRECORD
  5
9
102
{ACAD_REACTORS
330
8
102
}
330
8
100
AcDbXrecord
280
     1
290
     1
  0
XRECORD
  5
37
102
{ACAD_REACTORS
330
36
102
}
330
36
100
AcDbXrecord
280
     1
290
     1
  0
XRECORD
  5
D2
102
{ACAD_REACTORS
330
D1
102
}
330
D1
100
AcDbXrecord
280
     1
290
     1
  0
XRECORD
  5
9A
102
{ACAD_REACTORS
330
99
102
}
330
99
100
AcDbXrecord
280
     1
290
     1
  0
XRECORD
  5
6C
102
{ACAD_REACTORS
330
6B
102
}
330
6B
100
AcDbXrecord
280
     1
290
     1
  0
XRECORD
  5
4
102
{ACAD_REACTORS
330
3
102
}
330
3
100
AcDbXrecord
280
     1
340
2
  0
SORTENTSTABLE
  5
F1
102
{ACAD_REACTORS
330
3
102
}
330
3
100
AcDbSortentsTable
330
2
  0
XRECORD
  5
14
102
{ACAD_REACTORS
330
13
102
}
330
13
100
AcDbXrecord
280
     1
340
12
  0
LAYOUT
  5
17
102
{ACAD_XDICTIONARY
360
101
102
}
102
{ACAD_REACTORS
330
10
102
}
330
10
100
AcDbPlotSettings
  1

  2
None
  4

  6

 40
0.0
 41
0.0
 42
0.0
 43
0.0
 44
0.0
 45
0.0
 46
0.0
 47
0.0
 48
0.0
 49
0.0
140
0.0
141
0.0
142
1.0
143
1.0
 70
   688
 72
     0
 73
     0
 74
     5
  7
Std pen settings.ctb
 75
    16
147
1.0
148
0.0
149
0.0
100
AcDbLayout
  1
Layout1
 70
     1
 71
     1
 10
0.0
 20
0.0
 11
420.0
 21
297.0
 12
0.0
 22
0.0
 32
0.0
 14
1.000000000000000E+20
 24
1.000000000000000E+20
 34
1.000000000000000E+20
 15
-1.000000000000000E+20
 25
-1.000000000000000E+20
 35
-1.000000000000000E+20
146
0.0
 13
0.0
 23
0.0
 33
0.0
 16
1.0
 26
0.0
 36
0.0
 17
0.0
 27
1.0
 37
0.0
 76
     0
330
12
  0
LAYOUT
  5
F
102
{ACAD_XDICTIONARY
360
FF
102
}
102
{ACAD_REACTORS
330
10
102
}
330
10
100
AcDbPlotSettings
  1

  2
none_device
  4
Letter_(8.50_x_11.00_Inches)
  6

 40
6.349999904632568
 41
6.349999904632568
 42
6.350006103515625
 43
6.350006103515625
 44
215.8999938964844
 45
279.3999938964844
 46
0.0
 47
0.0
 48
0.0
 49
0.0
140
0.0
141
0.0
142
1.0
143
190.4825914125939
 70
 11952
 72
     0
 73
     1
 74
     0
  7
Std pen settings.ctb
 75
     0
147
0.005249823580119
148
-187605.733827711
149
104251.2692448299
100
AcDbLayout
  1
Model
 70
     1
 71
     0
 10
0.0
 20
0.0
 11
12.0
 21
9.0
 12
0.0
 22
0.0
 32
0.0
 14
0.0
 24
0.0
 34
0.0
 15
0.0
 25
0.0
 35
0.0
146
0.0
 13
0.0
 23
0.0
 33
0.0
 16
1.0
 26
0.0
 36
0.0
 17
0.0
 27
1.0
 37
0.0
 76
     0
330
2
1001
ACAD_PSEXT
1000
None
1000
None
1000
Not applicable
1000
The layout will not be plotted unless a new plotter configuration name is selected.
1070
     0
  0
MLINESTYLE
  5
38
102
{ACAD_REACTORS
330
30
102
}
330
30
100
AcDbMlineStyle
  2
STANDARD
 70
     0
  3

 62
   256
 51
90.0
 52
90.0
 71
     2
 49
0.5
 62
   256
  6
BYLAYER
 49
-0.5
 62
   256
  6
BYLAYER
  0
ACDBPLACEHOLDER
  5
A
102
{ACAD_REACTORS
330
B
102
}
330
B
  0
TABLESTYLE
  5
39
102
{ACAD_XDICTIONARY
360
3A
102
}
102
{ACAD_REACTORS
330
34
102
}
330
34
100
AcDbTableStyle
  3
Standard
 70
     0
 71
     0
 40
0.06
 41
0.06
280
     0
281
     0
  7
STANDARD
140
0.18
170
     2
 62
     0
 63
     7
283
     0
274
    -2
284
     1
 64
     0
275
    -2
285
     1
 65
     0
276
    -2
286
     1
 66
     0
277
    -2
287
     1
 67
     0
278
    -2
288
     1
 68
     0
279
    -2
289
     1
 69
     0
  7
STANDARD
140
0.25
170
     5
 62
     0
 63
     7
283
     0
274
    -2
284
     1
 64
     0
275
    -2
285
     1
 65
     0
276
    -2
286
     1
 66
     0
277
    -2
287
     1
 67
     0
278
    -2
288
     1
 68
     0
279
    -2
289
     1
 69
     0
  7
STANDARD
140
0.18
170
     5
 62
     0
 63
     7
283
     0
274
    -2
284
     1
 64
     0
275
    -2
285
     1
 65
     0
276
    -2
286
     1
 66
     0
277
    -2
287
     1
 67
     0
278
    -2
288
     1
 68
     0
279
    -2
289
     1
 69
     0
  0
ACAD_PROXY_OBJECT
  5
27
102
{ACAD_REACTORS
330
28
102
}
330
28
100
AcDbProxyObject
 90
      499
 91
      512
 95
   983063
 70
     0
 93
      444
310
430C9915DA5C99599C985B59401049028333333333333E3BF0000000000000FB0107901411070040501600405405064090741402480A0340
 94
        0
1001
ACAD
1000
AcDbSavedByObjectVersion
1070
     0
1000
AcRTDxfName
1000
VISUALSTYLE
  0
DICTIONARYVAR
  5
F4
102
{ACAD_REACTORS
330
F3
102
}
330
F3
100
DictionaryVariables
280
     0
  1
STANDARD
  0
DICTIONARYVAR
  5
FB
102
{ACAD_REACTORS
330
F3
102
}
330
F3
100
DictionaryVariables
280
     0
  1
1
  0
DICTIONARYVAR
  5
FA
102
{ACAD_REACTORS
330
F3
102
}
330
F3
100
DictionaryVariables
280
     0
  1
1
  0
DICTIONARYVAR
  5
FC
102
{ACAD_REACTORS
330
F3
102
}
330
F3
100
DictionaryVariables
280
     0
  1

  0
DICTIONARY
  5
101
330
17
100
AcDbDictionary
280
     1
281
     1
  3
ACAD_XREC_ROUNDTRIP
360
102
  0
DICTIONARY
  5
FF
330
F
100
AcDbDictionary
280
     1
281
     1
  3
ACAD_XREC_ROUNDTRIP
360
100
  0
DICTIONARY
  5
3A
330
39
100
AcDbDictionary
280
     1
281
     1
  3
ACAD_ROUNDTRIP_2008_TABLESTYLE_CELLSTYLEMAP
360
3B
  3
ACAD_XREC_ROUNDTRIP
360
3C
  0
XRECORD
  5
102
102
{ACAD_REACTORS
330
101
102
}
330
101
100
AcDbXrecord
280
     1
102
SHADEPLOT
 70
     0
102
SHADEPLOTRESLEVEL
 70
     2
102
SHADEPLOTCUSTOMDPI
 70
   300
  0
XRECORD
  5
100
102
{ACAD_REACTORS
330
FF
102
}
330
FF
100
AcDbXrecord
280
     1
102
SHADEPLOT
 70
     0
102
SHADEPLOTRESLEVEL
 70
     2
102
SHADEPLOTCUSTOMDPI
 70
   300
  0
ACAD_PROXY_OBJECT
  5
3B
102
{ACAD_REACTORS
330
3A
102
}
330
3A
100
AcDbProxyObject
 90
      499
 91
      518
 95
   983063
 70
     0
 93
     4020
310
40D054060020000020000003200101A412A5058000000C100000000000000340FE419019018000000C1003FBFFFFFE02B5E8DC0F42A9CFD029018000000C1003FBFFFFFE02B5E8DC0F42A9CFD049018000000C1003FBFFFFFE02B5E8DC0F42A9CFD089018000000C1003FBFFFFFE02B5E8DC0F42A9CFD109018000000C1003
310
FBFFFFFE02B5E8DC0F42A9CFD209018000000C1003FBFFFFFE02B5E8DC0F42A9CFD01405075F5449544C450041501A8000000C800406904A9416000000304000AD7A3703D0AC73F90640640600000030400FEFFFFFF80AD7A3703D0AA73F40A40600000030400FEFFFFFF80AD7A3703D0AA73F41240600000030400FEFFFFF
310
F80AD7A3703D0AA73F42240600000030400FEFFFFFF80AD7A3703D0AA73F44240600000030400FEFFFFFF80AD7A3703D0AA73F48240600000030400FEFFFFFF80AD7A3703D0AA73F409014217D2115051115480105406A0000003200101A412A5028000000C10002B5E8DC0F42B1CFE419019018000000C1003FBFFFFFE02B
310
5E8DC0F42A9CFD029018000000C1003FBFFFFFE02B5E8DC0F42A9CFD049018000000C1003FBFFFFFE02B5E8DC0F42A9CFD089018000000C1003FBFFFFFE02B5E8DC0F42A9CFD109018000000C1003FBFFFFFE02B5E8DC0F42A9CFD209018000000C1003FBFFFFFE02B5E8DC0F42A9CFD03409065F44415441000
340
1C
340
0
340
0
340
0
340
0
340
0
340
0
340
1C
340
0
340
0
340
0
340
0
340
0
340
0
340
1C
340
0
340
0
340
0
340
0
340
0
340
0
 94
        0
1001
ACAD
1000
AcRTDxfName
1000
CELLSTYLEMAP
  0
XRECORD
  5
3C
102
{ACAD_REACTORS
330
3A
102
}
330
3A
100
AcDbXrecord
280
     1
102
ACAD_ROUNDTRIP_PRE2007_TABLESTYLE
 90
        4
 91
        0
  1

 92
        4
 93
        0
  2

 94
        4
 95
        0
  3

  0
ENDSEC
  0
EOF
