  0
SECTION
  2
HEADER
  9
$ACADVER
  1
AC1018
  9
$ACADMAINTVER
 70
    39
  9
$DWGCODEPAGE
  3
ANSI_1252
  9
$INSBASE
 10
7387.784575278399
 20
-6710.231752937629
 30
0.0
  9
$EXTMIN
 10
7050.48936134838
 20
-7345.192593365921
 30
0.0
  9
$EXTMAX
 10
8053.642667159698
 20
-6573.762976876655
 30
0.0
  9
$LIMMIN
 10
0.0
 20
0.0
  9
$LIMMAX
 10
420.0
 20
297.0
  9
$ORTHOMODE
 70
     0
  9
$REGENMODE
 70
     1
  9
$FILLMODE
 70
     1
  9
$QTEXTMODE
 70
     0
  9
$MIRRTEXT
 70
     1
  9
$LTSCALE
 40
0.25
  9
$ATTMODE
 70
     1
  9
$TEXTSIZE
 40
5.0
  9
$TRACEWID
 40
10.0
  9
$TEXTSTYLE
  7
ROMANS
  9
$CLAYER
  8
ANCON-CONCRETE
  9
$CELTYPE
  6
BYLAYER
  9
$CECOLOR
 62
   256
  9
$CELTSCALE
 40
1.0
  9
$DISPSILH
 70
     0
  9
$DIMSCALE
 40
0.0
  9
$DIMASZ
 40
4.0
  9
$DIMEXO
 40
3.0
  9
$DIMDLI
 40
10.0
  9
$DIMRND
 40
0.0
  9
$DIMDLE
 40
1.25
  9
$DIMEXE
 40
3.0
  9
$DIMTP
 40
0.0
  9
$DIMTM
 40
0.0
  9
$DIMTXT
 40
3.0
  9
$DIMCEN
 40
-3.0
  9
$DIMTSZ
 40
0.0
  9
$DIMTOL
 70
     0
  9
$DIMLIM
 70
     0
  9
$DIMTIH
 70
     0
  9
$DIMTOH
 70
     0
  9
$DIMSE1
 70
     0
  9
$DIMSE2
 70
     0
  9
$DIMTAD
 70
     1
  9
$DIMZIN
 70
    12
  9
$DIMBLK
  1

  9
$DIMASO
 70
     1
  9
$DIMSHO
 70
     0
  9
$DIMPOST
  1

  9
$DIMAPOST
  1

  9
$DIMALT
 70
     0
  9
$DIMALTD
 70
     2
  9
$DIMALTF
 40
0.039
  9
$DIMLFAC
 40
1.0
  9
$DIMTOFL
 70
     0
  9
$DIMTVP
 40
1.5
  9
$DIMTIX
 70
     0
  9
$DIMSOXD
 70
     0
  9
$DIMSAH
 70
     0
  9
$DIMBLK1
  1

  9
$DIMBLK2
  1

  9
$DIMSTYLE
  2
1-2
  9
$DIMCLRD
 70
     0
  9
$DIMCLRE
 70
     0
  9
$DIMCLRT
 70
     0
  9
$DIMTFAC
 40
0.75
  9
$DIMGAP
 40
1.5
  9
$DIMJUST
 70
     0
  9
$DIMSD1
 70
     0
  9
$DIMSD2
 70
     0
  9
$DIMTOLJ
 70
     1
  9
$DIMTZIN
 70
    12
  9
$DIMALTZ
 70
    12
  9
$DIMALTTZ
 70
    12
  9
$DIMUPT
 70
     0
  9
$DIMDEC
 70
     2
  9
$DIMTDEC
 70
     2
  9
$DIMALTU
 70
     2
  9
$DIMALTTD
 70
     2
  9
$DIMTXSTY
  7
ROMANS
  9
$DIMAUNIT
 70
     0
  9
$DIMADEC
 70
     0
  9
$DIMALTRND
 40
0.0
  9
$DIMAZIN
 70
     0
  9
$DIMDSEP
 70
    46
  9
$DIMATFIT
 70
     3
  9
$DIMFRAC
 70
     0
  9
$DIMLDRBLK
  1

  9
$DIMLUNIT
 70
     2
  9
$DIMLWD
 70
    -2
  9
$DIMLWE
 70
    -2
  9
$DIMTMOVE
 70
     2
  9
$LUNITS
 70
     2
  9
$LUPREC
 70
     2
  9
$SKETCHINC
 40
1.0
  9
$FILLETRAD
 40
0.0
  9
$AUNITS
 70
     0
  9
$AUPREC
 70
     4
  9
$MENU
  1
acad
  9
$ELEVATION
 40
0.0
  9
$PELEVATION
 40
0.0
  9
$THICKNESS
 40
0.0
  9
$LIMCHECK
 70
     0
  9
$CHAMFERA
 40
0.0
  9
$CHAMFERB
 40
0.0
  9
$CHAMFERC
 40
0.0
  9
$CHAMFERD
 40
0.0
  9
$SKPOLY
 70
     0
  9
$TDCREATE
 40
2449527.571155093
  9
$TDUCREATE
 40
2449527.529488426
  9
$TDUPDATE
 40
2455075.723026979
  9
$TDUUPDATE
 40
2455075.681360312
  9
$TDINDWG
 40
0.8953584722
  9
$TDUSRTIMER
 40
0.8953584722
  9
$USRTIMER
 70
     1
  9
$ANGBASE
 50
0.0
  9
$ANGDIR
 70
     0
  9
$PDMODE
 70
     0
  9
$PDSIZE
 40
0.0
  9
$PLINEWID
 40
0.0
  9
$SPLFRAME
 70
     0
  9
$SPLINETYPE
 70
     6
  9
$SPLINESEGS
 70
     8
  9
$HANDSEED
  5
109
  9
$SURFTAB1
 70
    18
  9
$SURFTAB2
 70
    18
  9
$SURFTYPE
 70
     6
  9
$SURFU
 70
    18
  9
$SURFV
 70
    18
  9
$UCSBASE
  2

  9
$UCSNAME
  2

  9
$UCSORG
 10
0.0
 20
0.0
 30
0.0
  9
$UCSXDIR
 10
1.0
 20
0.0
 30
0.0
  9
$UCSYDIR
 10
0.0
 20
1.0
 30
0.0
  9
$UCSORTHOREF
  2

  9
$UCSORTHOVIEW
 70
     0
  9
$UCSORGTOP
 10
0.0
 20
0.0
 30
0.0
  9
$UCSORGBOTTOM
 10
0.0
 20
0.0
 30
0.0
  9
$UCSORGLEFT
 10
0.0
 20
0.0
 30
0.0
  9
$UCSORGRIGHT
 10
0.0
 20
0.0
 30
0.0
  9
$UCSORGFRONT
 10
0.0
 20
0.0
 30
0.0
  9
$UCSORGBACK
 10
0.0
 20
0.0
 30
0.0
  9
$PUCSBASE
  2

  9
$PUCSNAME
  2

  9
$PUCSORG
 10
0.0
 20
0.0
 30
0.0
  9
$PUCSXDIR
 10
1.0
 20
0.0
 30
0.0
  9
$PUCSYDIR
 10
0.0
 20
1.0
 30
0.0
  9
$PUCSORTHOREF
  2

  9
$PUCSORTHOVIEW
 70
     0
  9
$PUCSORGTOP
 10
0.0
 20
0.0
 30
0.0
  9
$PUCSORGBOTTOM
 10
0.0
 20
0.0
 30
0.0
  9
$PUCSORGLEFT
 10
0.0
 20
0.0
 30
0.0
  9
$PUCSORGRIGHT
 10
0.0
 20
0.0
 30
0.0
  9
$PUCSORGFRONT
 10
0.0
 20
0.0
 30
0.0
  9
$PUCSORGBACK
 10
0.0
 20
0.0
 30
0.0
  9
$USERI1
 70
     0
  9
$USERI2
 70
     0
  9
$USERI3
 70
     0
  9
$USERI4
 70
     0
  9
$USERI5
 70
     0
  9
$USERR1
 40
0.0
  9
$USERR2
 40
0.0
  9
$USERR3
 40
0.0
  9
$USERR4
 40
0.0
  9
$USERR5
 40
0.0
  9
$WORLDVIEW
 70
     1
  9
$SHADEDGE
 70
     3
  9
$SHADEDIF
 70
    70
  9
$TILEMODE
 70
     1
  9
$MAXACTVP
 70
    16
  9
$PINSBASE
 10
0.0
 20
0.0
 30
0.0
  9
$PLIMCHECK
 70
     0
  9
$PEXTMIN
 10
1.000000000000000E+20
 20
1.000000000000000E+20
 30
1.000000000000000E+20
  9
$PEXTMAX
 10
-1.000000000000000E+20
 20
-1.000000000000000E+20
 30
-1.000000000000000E+20
  9
$PLIMMIN
 10
0.0
 20
0.0
  9
$PLIMMAX
 10
420.0
 20
297.0
  9
$UNITMODE
 70
     0
  9
$VISRETAIN
 70
     0
  9
$PLINEGEN
 70
     0
  9
$PSLTSCALE
 70
     1
  9
$TREEDEPTH
 70
  3020
  9
$CMLSTYLE
  2
STANDARD
  9
$CMLJUST
 70
     0
  9
$CMLSCALE
 40
1.0
  9
$PROXYGRAPHICS
 70
     1
  9
$MEASUREMENT
 70
     0
  9
$CELWEIGHT
370
    -1
  9
$ENDCAPS
280
     0
  9
$JOINSTYLE
280
     0
  9
$LWDISPLAY
290
     0
  9
$INSUNITS
 70
     0
  9
$HYPERLINKBASE
  1

  9
$STYLESHEET
  1

  9
$XEDIT
290
     1
  9
$CEPSNTYPE
380
     0
  9
$PSTYLEMODE
290
     1
  9
$FINGERPRINTGUID
  2
{65A06254-BC73-4633-A6F5-70F200A0B6A5}
  9
$VERSIONGUID
  2
{CDDA8927-94C5-4C25-998D-D6AF91CE5F1F}
  9
$EXTNAMES
290
     1
  9
$PSVPSCALE
 40
0.0
  9
$OLESTARTUP
290
     0
  9
$SORTENTS
280
   127
  9
$INDEXCTL
280
     0
  9
$HIDETEXT
280
     1
  9
$XCLIPFRAME
290
     0
  9
$HALOGAP
280
     0
  9
$OBSCOLOR
 70
   257
  9
$OBSLTYPE
280
     0
  9
$INTERSECTIONDISPLAY
280
     0
  9
$INTERSECTIONCOLOR
 70
   257
  9
$DIMASSOC
280
     1
  9
$PROJECTNAME
  1

  0
ENDSEC
  0
SECTION
  2
CLASSES
  0
CLASS
  1
DICTIONARYVAR
  2
AcDbDictionaryVar
  3
ObjectDBX Classes
 90
        0
 91
        1
280
     0
281
     0
  0
CLASS
  1
LWPOLYLINE
  2
AcDbPolyline
  3
ObjectDBX Classes
 90
        0
 91
        0
280
     0
281
     1
  0
CLASS
  1
XRECORD
  2
AcDbXrecord
  3
ObjectDBX Classes
 90
        0
 91
        9
280
     0
281
     0
  0
CLASS
  1
ACDBDICTIONARYWDFLT
  2
AcDbDictionaryWithDefault
  3
ObjectDBX Classes
 90
        0
 91
        1
280
     0
281
     0
  0
CLASS
  1
ACDBPLACEHOLDER
  2
AcDbPlaceHolder
  3
ObjectDBX Classes
 90
        0
 91
        1
280
     0
281
     0
  0
CLASS
  1
LAYOUT
  2
AcDbLayout
  3
ObjectDBX Classes
 90
        0
 91
        2
280
     0
281
     0
  0
CLASS
  1
LONG_TRANSACTION
  2
AcDbLongTransaction
  3
ObjectDBX Classes
 90
        0
 91
        0
280
     0
281
     0
  0
CLASS
  1
LWPOLYLINE
  2
AcDbPolyline
  3
ObjectDBX Classes
 90
        0
 91
        0
280
     0
281
     1
  0
CLASS
  1
HATCH
  2
AcDbHatch
  3
ObjectDBX Classes
 90
        0
 91
        0
280
     0
281
     1
  0
CLASS
  1
XRECORD
  2
AcDbXrecord
  3
ObjectDBX Classes
 90
        0
 91
        9
280
     0
281
     0
  0
CLASS
  1
TABLESTYLE
  2
AcDbTableStyle
  3
ObjectDBX Classes
 90
     2047
 91
        1
280
     0
281
     0
  0
CLASS
  1
MATERIAL
  2
AcDbMaterial
  3
ObjectDBX Classes
 90
        0
 91
        0
280
     0
281
     0
  0
CLASS
  1
VISUALSTYLE
  2
AcDbVisualStyle
  3
ObjectDBX Classes
 90
     4095
 91
        2
280
     1
281
     0
  0
CLASS
  1
SCALE
  2
AcDbScale
  3
ObjectDBX Classes
 90
     1153
 91
        0
280
     1
281
     0
  0
CLASS
  1
MLEADERSTYLE
  2
AcDbMLeaderStyle
  3
ACDB_MLEADERSTYLE_CLASS
 90
     4095
 91
        0
280
     1
281
     0
  0
CLASS
  1
PLOTSETTINGS
  2
AcDbPlotSettings
  3
ObjectDBX Classes
 90
        0
 91
        0
280
     0
281
     0
  0
CLASS
  1
DIMASSOC
  2
AcDbDimAssoc
  3
"AcDbDimAssoc|Product Desc:     AcDim ARX App For Dimension|Company:          Autodesk, Inc.|WEB Address:      www.autodesk.com"
 90
        0
 91
        0
280
     0
281
     0
  0
CLASS
  1
SORTENTSTABLE
  2
AcDbSortentsTable
  3
ObjectDBX Classes
 90
        0
 91
        1
280
     0
281
     0
  0
CLASS
  1
CELLSTYLEMAP
  2
AcDbCellStyleMap
  3
ObjectDBX Classes
 90
     1152
 91
        2
280
     1
281
     0
  0
CLASS
  1
AEC_REFEDIT_STATUS_TRACKER
  2
AecDbRefEditStatusTracker
  3
AecArchBase50|Product Desc: Autodesk Architectural Desktop 2007 |Company: Autodesk,Inc. |WEB Address: www.autodesk.com
 90
      129
 91
        0
280
     1
281
     0
  0
CLASS
  1
NPOCOLLECTION
  2
AcDbImpNonPersistentObjectsCollection
  3
ObjectDBX Classes
 90
     1153
 91
        0
280
     1
281
     0
  0
ENDSEC
  0
SECTION
  2
TABLES
  0
TABLE
  2
VPORT
  5
23
102
{ACAD_XDICTIONARY
360
25
102
}
330
0
100
AcDbSymbolTable
 70
     2
  0
VPORT
  5
108
330
23
100
AcDbSymbolTableRecord
100
AcDbViewportTableRecord
  2
*Active
 70
     0
 10
0.0
 20
0.0
 11
1.0
 21
1.0
 12
7552.066014254037
 22
-6959.477785121288
 13
0.0
 23
0.0
 14
5.0
 24
5.0
 15
10.0
 25
10.0
 16
0.0
 26
0.0
 36
1.0
 17
0.0
 27
0.0
 37
0.0
 40
784.2867767640873
 41
2.573816155988858
 42
50.0
 43
0.0
 44
0.0
 50
0.0
 51
0.0
 71
     0
 72
   100
 73
     1
 74
     1
 75
     0
 76
     0
 77
     0
 78
     1
281
     0
 65
     1
110
0.0
120
0.0
130
0.0
111
1.0
121
0.0
131
0.0
112
0.0
122
1.0
132
0.0
 79
     0
146
0.0
  0
ENDTAB
  0
TABLE
  2
LTYPE
  5
1E
330
0
100
AcDbSymbolTable
 70
     4
  0
LTYPE
  5
1F
330
1E
100
AcDbSymbolTableRecord
100
AcDbLinetypeTableRecord
  2
BYBLOCK
 70
     0
  3

 72
    65
 73
     0
 40
0.0
  0
LTYPE
  5
20
330
1E
100
AcDbSymbolTableRecord
100
AcDbLinetypeTableRecord
  2
BYLAYER
 70
     0
  3

 72
    65
 73
     0
 40
0.0
  0
LTYPE
  5
D
330
1E
100
AcDbSymbolTableRecord
100
AcDbLinetypeTableRecord
  2
CONTINUOUS
 70
     0
  3
Solid line
 72
    65
 73
     0
 40
0.0
  0
LTYPE
  5
9E
330
1E
100
AcDbSymbolTableRecord
100
AcDbLinetypeTableRecord
  2
GRID1_01
 70
     0
  3
________________  __  ________________  __
 72
    65
 73
     4
 40
36.0
 49
30.0
 74
     0
 49
-2.0
 74
     0
 49
2.0
 74
     0
 49
-2.0
 74
     0
  0
LTYPE
  5
A3
330
1E
100
AcDbSymbolTableRecord
100
AcDbLinetypeTableRecord
  2
HIDDEN1_01
 70
     0
  3
__ __ __ __ __ __ __ __ __ __ __ __ __ __ __ __
 72
    65
 73
     2
 40
5.0
 49
3.0
 74
     0
 49
-2.0
 74
     0
  0
LTYPE
  5
4F
330
1E
100
AcDbSymbolTableRecord
100
AcDbLinetypeTableRecord
  2
CENTER
 70
     0
  3
Center ____ _ ____ _ ____ _ ____ _ ____ _ ____
 72
    65
 73
     4
 40
50.8
 49
31.75
 74
     0
 49
-6.349999999999999
 74
     0
 49
6.349999999999999
 74
     0
 49
-6.349999999999999
 74
     0
  0
ENDTAB
  0
TABLE
  2
LAYER
  5
18
102
{ACAD_XDICTIONARY
360
19
102
}
330
0
100
AcDbSymbolTable
 70
     6
  0
LAYER
  5
7
102
{ACAD_XDICTIONARY
360
8
102
}
330
18
100
AcDbSymbolTableRecord
100
AcDbLayerTableRecord
  2
0
 70
     0
 62
     7
  6
CONTINUOUS
370
    -3
390
A
  0
LAYER
  5
35
102
{ACAD_XDICTIONARY
360
36
102
}
330
18
100
AcDbSymbolTableRecord
100
AcDbLayerTableRecord
  2
ANCON-CONCRETE
 70
     0
 62
     2
  6
CONTINUOUS
370
    -3
390
A
  0
LAYER
  5
DE
102
{ACAD_XDICTIONARY
360
DF
102
}
330
18
100
AcDbSymbolTableRecord
100
AcDbLayerTableRecord
  2
ANCON-TEXT
 70
     0
 62
     6
  6
CONTINUOUS
370
    -3
390
A
  0
LAYER
  5
A0
102
{ACAD_XDICTIONARY
360
A1
102
}
330
18
100
AcDbSymbolTableRecord
100
AcDbLayerTableRecord
  2
OUTLINE
 70
     0
 62
     5
  6
CONTINUOUS
370
    -3
390
A
  0
LAYER
  5
4C
102
{ACAD_XDICTIONARY
360
4D
102
}
330
18
100
AcDbSymbolTableRecord
100
AcDbLayerTableRecord
  2
CENTRE
 70
     0
 62
     1
  6
CENTER
370
    -3
390
A
  0
LAYER
  5
3E
330
18
100
AcDbSymbolTableRecord
100
AcDbLayerTableRecord
  2
ANCON-HLD
 70
     0
 62
     3
  6
CONTINUOUS
370
    -3
390
A
1001
AcAecLayerStandard
1000

1000

  0
ENDTAB
  0
TABLE
  2
STYLE
  5
1B
330
0
100
AcDbSymbolTable
 70
     2
  0
STYLE
  5
1C
330
1B
100
AcDbSymbolTableRecord
100
AcDbTextStyleTableRecord
  2
STANDARD
 70
     0
 40
0.0
 41
1.0
 50
0.0
 71
     0
 42
6.0
  3
txt.shx
  4

  0
STYLE
  5
2D
330
1B
100
AcDbSymbolTableRecord
100
AcDbTextStyleTableRecord
  2
ROMANS
 70
     0
 40
0.0
 41
1.0
 50
0.0
 71
     0
 42
5.0
  3
romans
  4

  0
ENDTAB
  0
TABLE
  2
VIEW
  5
21
330
0
100
AcDbSymbolTable
 70
     0
  0
ENDTAB
  0
TABLE
  2
UCS
  5
22
330
0
100
AcDbSymbolTable
 70
     0
  0
ENDTAB
  0
TABLE
  2
APPID
  5
2A
330
0
100
AcDbSymbolTable
 70
     3
  0
APPID
  5
29
330
2A
100
AcDbSymbolTableRecord
100
AcDbRegAppTableRecord
  2
ACAD
 70
     0
  0
APPID
  5
11
330
2A
100
AcDbSymbolTableRecord
100
AcDbRegAppTableRecord
  2
ACAD_PSEXT
 70
     0
  0
APPID
  5
3F
330
2A
100
AcDbSymbolTableRecord
100
AcDbRegAppTableRecord
  2
AcAecLayerStandard
 70
     0
  0
ENDTAB
  0
TABLE
  2
DIMSTYLE
  5
2B
330
0
100
AcDbSymbolTable
 70
     1
100
AcDbDimStyleTable
 71
     1
340
2C
  0
DIMSTYLE
105
2C
330
2B
100
AcDbSymbolTableRecord
100
AcDbDimStyleTableRecord
  2
1-2
 70
     0
 40
0.0
 41
4.0
 42
3.0
 43
10.0
 44
3.0
 46
1.25
 73
     0
 74
     0
 77
     1
 78
    12
140
3.0
141
-3.0
143
0.039
145
1.5
146
0.75
147
1.5
271
     2
272
     2
279
     2
284
    12
285
    12
286
    12
340
2D
  0
ENDTAB
  0
TABLE
  2
BLOCK_RECORD
  5
1
330
0
100
AcDbSymbolTable
 70
     0
  0
BLOCK_RECORD
  5
2
102
{ACAD_XDICTIONARY
360
3
102
}
330
1
100
AcDbSymbolTableRecord
100
AcDbBlockTableRecord
  2
*MODEL_SPACE
340
F
  0
BLOCK_RECORD
  5
12
102
{ACAD_XDICTIONARY
360
13
102
}
330
1
100
AcDbSymbolTableRecord
100
AcDbBlockTableRecord
  2
*PAPER_SPACE
340
17
  0
ENDTAB
  0
ENDSEC
  0
SECTION
  2
BLOCKS
  0
BLOCK
  5
6
330
2
100
AcDbEntity
  8
0
100
AcDbBlockBegin
  2
*MODEL_SPACE
 70
     0
 10
0.0
 20
0.0
 30
0.0
  3
*MODEL_SPACE
  1

  0
ENDBLK
  5
E
330
2
100
AcDbEntity
  8
0
100
AcDbBlockEnd
  0
BLOCK
  5
15
330
12
100
AcDbEntity
 67
     1
  8
0
100
AcDbBlockBegin
  2
*PAPER_SPACE
 70
     0
 10
0.0
 20
0.0
 30
0.0
  3
*PAPER_SPACE
  1

  0
ENDBLK
  5
16
330
12
100
AcDbEntity
 67
     1
  8
0
100
AcDbBlockEnd
  0
ENDSEC
  0
SECTION
  2
ENTITIES
  0
LINE
  5
3D
330
2
100
AcDbEntity
  8
ANCON-HLD
100
AcDbLine
 10
7393.784575278399
 20
-6741.731752937629
 30
0.0
 11
7571.784575278399
 21
-6741.731752937629
 31
0.0
  0
ARC
  5
40
330
2
100
AcDbEntity
  8
ANCON-HLD
100
AcDbCircle
 10
7482.784575278398
 20
-6685.231752937629
 30
0.0
 40
135.0
100
AcDbArc
 50
238.034281249206
 51
301.965718750794
  0
ARC
  5
41
330
2
100
AcDbEntity
  8
ANCON-HLD
100
AcDbCircle
 10
7482.784575278398
 20
-6685.231752937629
 30
0.0
 40
129.0
100
AcDbArc
 50
238.034281249206
 51
301.965718750794
  0
ARC
  5
42
330
2
100
AcDbEntity
  8
ANCON-HLD
100
AcDbCircle
 10
7482.784575278398
 20
-6735.231752937629
 30
0.0
 40
135.0
100
AcDbArc
 50
58.03428124920601
 51
121.965718750794
  0
ARC
  5
43
330
2
100
AcDbEntity
  8
ANCON-HLD
100
AcDbCircle
 10
7482.784575278398
 20
-6735.231752937629
 30
0.0
 40
129.0
100
AcDbArc
 50
58.03428124920601
 51
121.965718750794
  0
LINE
  5
44
330
2
100
AcDbEntity
  8
ANCON-HLD
100
AcDbLine
 10
7393.784575278399
 20
-6917.7997824031
 30
0.0
 11
7577.784575278399
 21
-6917.7997824031
 31
0.0
  0
LINE
  5
45
330
2
100
AcDbEntity
  8
ANCON-HLD
100
AcDbLine
 10
7393.784575278399
 20
-7161.799782403099
 30
0.0
 11
7577.784575278399
 21
-7161.799782403099
 31
0.0
  0
LINE
  5
46
330
2
100
AcDbEntity
  8
ANCON-HLD
100
AcDbLine
 10
7387.784575278399
 20
-7173.7997824031
 30
0.0
 11
7387.784575278399
 21
-6905.799782403099
 31
0.0
  0
LINE
  5
47
330
2
100
AcDbEntity
  8
ANCON-HLD
100
AcDbLine
 10
7393.784575278399
 20
-6905.799782403099
 30
0.0
 11
7393.784575278399
 21
-7173.7997824031
 31
0.0
  0
LINE
  5
48
330
2
100
AcDbEntity
  8
ANCON-HLD
100
AcDbLine
 10
7387.784575278399
 20
-7173.7997824031
 30
0.0
 11
7393.784575278399
 21
-7173.7997824031
 31
0.0
  0
LINE
  5
49
330
2
100
AcDbEntity
  8
ANCON-HLD
100
AcDbLine
 10
7387.784575278399
 20
-6790.231752937629
 30
0.0
 11
7387.784575278399
 21
-6630.231752937629
 31
0.0
  0
LINE
  5
4A
330
2
100
AcDbEntity
  8
ANCON-HLD
100
AcDbLine
 10
7393.784575278399
 20
-6790.231752937629
 30
0.0
 11
7393.784575278399
 21
-6630.231752937629
 31
0.0
  0
LINE
  5
4B
330
2
100
AcDbEntity
  8
CENTRE
100
AcDbLine
 10
7914.937633632096
 20
-6830.231752937629
 30
0.0
 11
7914.937633632096
 21
-6590.231752937629
 31
0.0
  0
LINE
  5
50
330
2
100
AcDbEntity
  8
ANCON-HLD
100
AcDbLine
 10
8048.937633632094
 20
-6790.231752937629
 30
0.0
 11
8048.937633632094
 21
-6630.231752937629
 31
0.0
  0
LINE
  5
51
330
2
100
AcDbEntity
  8
ANCON-HLD
100
AcDbLine
 10
7780.937633632095
 20
-6790.231752937629
 30
0.0
 11
7780.937633632095
 21
-6630.231752937629
 31
0.0
  0
LINE
  5
52
330
2
100
AcDbEntity
  8
CENTRE
100
AcDbLine
 10
8053.642667159698
 20
-6710.231752937629
 30
0.0
 11
7774.296323392859
 21
-6710.231752937629
 31
0.0
  0
LINE
  5
53
330
2
100
AcDbEntity
  8
ANCON-HLD
100
AcDbLine
 10
7960.937633632095
 20
-6741.731752937629
 30
0.0
 11
7866.937633632095
 21
-6741.731752937629
 31
0.0
  0
LINE
  5
54
330
2
100
AcDbEntity
  8
ANCON-HLD
100
AcDbLine
 10
7868.937633632095
 20
-6678.731752937628
 30
0.0
 11
7962.937633632094
 21
-6678.731752937628
 31
0.0
  0
LINE
  5
55
330
2
100
AcDbEntity
  8
ANCON-HLD
100
AcDbLine
 10
7868.937633632095
 20
-6680.731752937629
 30
0.0
 11
7964.937633632096
 21
-6680.731752937629
 31
0.0
  0
LINE
  5
56
330
2
100
AcDbEntity
  8
ANCON-HLD
100
AcDbLine
 10
7960.937633632095
 20
-6739.731752937629
 30
0.0
 11
7864.937633632095
 21
-6739.731752937629
 31
0.0
  0
LINE
  5
57
330
2
100
AcDbEntity
  8
ANCON-HLD
100
AcDbLine
 10
8048.937633632094
 20
-6790.231752937629
 30
0.0
 11
7780.937633632095
 21
-6790.231752937629
 31
0.0
  0
LINE
  5
58
330
2
100
AcDbEntity
  8
ANCON-HLD
100
AcDbLine
 10
7792.937633632094
 20
-6820.23175293763
 30
0.0
 11
7792.937633632094
 21
-6790.231752937629
 31
0.0
  0
LINE
  5
59
330
2
100
AcDbEntity
  8
CENTRE
 48
0.125
100
AcDbLine
 10
7785.937633632094
 20
-6780.23175293763
 30
0.0
 11
7785.937633632094
 21
-6790.231752937629
 31
0.0
  0
LINE
  5
5A
330
2
100
AcDbEntity
  8
CENTRE
 48
0.125
100
AcDbLine
 10
7790.937633632094
 20
-6785.23175293763
 30
0.0
 11
7780.937633632095
 21
-6785.23175293763
 31
0.0
  0
CIRCLE
  5
5B
330
2
100
AcDbEntity
  8
ANCON-HLD
100
AcDbCircle
 10
7785.937633632094
 20
-6785.23175293763
 30
0.0
 40
2.5
  0
LINE
  5
5C
330
2
100
AcDbEntity
  8
ANCON-HLD
100
AcDbLine
 10
7864.937633632095
 20
-6739.731752937629
 30
0.0
 11
7864.937633632095
 21
-6682.731752937629
 31
0.0
  0
LINE
  5
5D
330
2
100
AcDbEntity
  8
ANCON-HLD
100
AcDbLine
 10
7866.937633632095
 20
-6741.731752937629
 30
0.0
 11
7866.937633632095
 21
-6682.731752937629
 31
0.0
  0
ARC
  5
5E
330
2
100
AcDbEntity
  8
ANCON-HLD
100
AcDbCircle
 10
7868.937633632095
 20
-6682.731752937629
 30
0.0
 40
4.0
100
AcDbArc
 50
90.0
 51
180.0
  0
ARC
  5
5F
330
2
100
AcDbEntity
  8
ANCON-HLD
100
AcDbCircle
 10
7868.937633632095
 20
-6682.731752937629
 30
0.0
 40
2.0
100
AcDbArc
 50
90.0
 51
180.0
  0
CIRCLE
  5
60
330
2
100
AcDbEntity
  8
ANCON-HLD
100
AcDbCircle
 10
7914.937633632096
 20
-6710.231752937629
 30
0.0
 40
28.99999999999966
  0
CIRCLE
  5
61
330
2
100
AcDbEntity
  8
ANCON-HLD
100
AcDbCircle
 10
7914.937633632096
 20
-6710.231752937629
 30
0.0
 40
25.99999999999966
  0
LINE
  5
62
330
2
100
AcDbEntity
  8
ANCON-HLD
100
AcDbLine
 10
7964.937633632096
 20
-6680.731752937629
 30
0.0
 11
7964.937633632096
 21
-6737.731752937628
 31
0.0
  0
LINE
  5
63
330
2
100
AcDbEntity
  8
ANCON-HLD
100
AcDbLine
 10
7962.937633632094
 20
-6678.731752937628
 30
0.0
 11
7962.937633632094
 21
-6737.731752937628
 31
0.0
  0
ARC
  5
64
330
2
100
AcDbEntity
  8
ANCON-HLD
100
AcDbCircle
 10
7960.937633632095
 20
-6737.731752937628
 30
0.0
 40
4.0
100
AcDbArc
 50
270.0
 51
0.0
  0
ARC
  5
65
330
2
100
AcDbEntity
  8
ANCON-HLD
100
AcDbCircle
 10
7960.937633632095
 20
-6737.731752937628
 30
0.0
 40
2.0
100
AcDbArc
 50
270.0
 51
0.0
  0
LINE
  5
66
330
2
100
AcDbEntity
  8
ANCON-HLD
100
AcDbLine
 10
7387.784575278399
 20
-6790.231752937629
 30
0.0
 11
7393.784575278399
 21
-6790.231752937629
 31
0.0
  0
LINE
  5
67
330
2
100
AcDbEntity
  8
ANCON-HLD
100
AcDbLine
 10
7387.784575278399
 20
-6905.799782403099
 30
0.0
 11
7393.784575278399
 21
-6905.799782403099
 31
0.0
  0
LINE
  5
68
330
2
100
AcDbEntity
  8
ANCON-HLD
100
AcDbLine
 10
8036.937633632096
 20
-6820.23175293763
 30
0.0
 11
8036.937633632096
 21
-6790.231752937629
 31
0.0
  0
LINE
  5
69
330
2
100
AcDbEntity
  8
CENTRE
 48
0.125
100
AcDbLine
 10
8048.937633632094
 20
-6785.23175293763
 30
0.0
 11
8038.937633632095
 21
-6785.23175293763
 31
0.0
  0
LINE
  5
6A
330
2
100
AcDbEntity
  8
CENTRE
 48
0.125
100
AcDbLine
 10
8043.937633632095
 20
-6780.23175293763
 30
0.0
 11
8043.937633632095
 21
-6790.231752937629
 31
0.0
  0
CIRCLE
  5
6B
330
2
100
AcDbEntity
  8
ANCON-HLD
100
AcDbCircle
 10
8043.937633632095
 20
-6785.23175293763
 30
0.0
 40
2.5
  0
LINE
  5
6C
330
2
100
AcDbEntity
  8
ANCON-HLD
100
AcDbLine
 10
7393.784575278399
 20
-6781.091462620984
 30
0.0
 11
7399.064575278399
 21
-6778.241620520095
 31
0.0
  0
ARC
  5
6D
330
2
100
AcDbEntity
  8
ANCON-HLD
100
AcDbCircle
 10
7437.784575278398
 20
-6757.342778446909
 30
0.0
 40
50.0
100
AcDbArc
 50
208.3576365763437
 51
238.034281249206
  0
ARC
  5
6E
330
2
100
AcDbEntity
  8
ANCON-HLD
100
AcDbCircle
 10
7437.784575278398
 20
-6757.342778446909
 30
0.0
 40
44.0
100
AcDbArc
 50
208.3576365763437
 51
238.034281249206
  0
LINE
  5
6F
330
2
100
AcDbEntity
  8
ANCON-HLD
100
AcDbLine
 10
8048.937633632094
 20
-6630.231752937629
 30
0.0
 11
7780.937633632095
 21
-6630.231752937629
 31
0.0
  0
LINE
  5
70
330
2
100
AcDbEntity
  8
ANCON-HLD
100
AcDbLine
 10
8036.937633632096
 20
-6600.23175293763
 30
0.0
 11
7934.937633632094
 21
-6600.23175293763
 31
0.0
  0
LINE
  5
71
330
2
100
AcDbEntity
  8
ANCON-HLD
100
AcDbLine
 10
7792.937633632094
 20
-6630.231752937629
 30
0.0
 11
7792.937633632094
 21
-6600.23175293763
 31
0.0
  0
LINE
  5
72
330
2
100
AcDbEntity
  8
CENTRE
 48
0.125
100
AcDbLine
 10
7790.937633632094
 20
-6635.231752937629
 30
0.0
 11
7780.937633632095
 21
-6635.231752937629
 31
0.0
  0
LINE
  5
73
330
2
100
AcDbEntity
  8
CENTRE
 48
0.125
100
AcDbLine
 10
7785.937633632094
 20
-6630.231752937629
 30
0.0
 11
7785.937633632094
 21
-6640.231752937629
 31
0.0
  0
CIRCLE
  5
74
330
2
100
AcDbEntity
  8
ANCON-HLD
100
AcDbCircle
 10
7785.937633632094
 20
-6635.231752937629
 30
0.0
 40
2.5
  0
LINE
  5
75
330
2
100
AcDbEntity
  8
ANCON-HLD
100
AcDbLine
 10
7387.784575278399
 20
-6630.231752937629
 30
0.0
 11
7393.784575278399
 21
-6630.231752937629
 31
0.0
  0
LINE
  5
76
330
2
100
AcDbEntity
  8
ANCON-HLD
100
AcDbLine
 10
8036.937633632096
 20
-6630.231752937629
 30
0.0
 11
8036.937633632096
 21
-6600.23175293763
 31
0.0
  0
LINE
  5
77
330
2
100
AcDbEntity
  8
CENTRE
 48
0.125
100
AcDbLine
 10
8043.937633632095
 20
-6630.231752937629
 30
0.0
 11
8043.937633632095
 21
-6640.231752937629
 31
0.0
  0
LINE
  5
78
330
2
100
AcDbEntity
  8
CENTRE
 48
0.125
100
AcDbLine
 10
8048.937633632094
 20
-6635.231752937629
 30
0.0
 11
8038.937633632095
 21
-6635.231752937629
 31
0.0
  0
CIRCLE
  5
79
330
2
100
AcDbEntity
  8
ANCON-HLD
100
AcDbCircle
 10
8043.937633632095
 20
-6635.231752937629
 30
0.0
 40
2.5
  0
LINE
  5
7A
330
2
100
AcDbEntity
  8
ANCON-HLD
100
AcDbLine
 10
7393.784575278399
 20
-6639.372043254275
 30
0.0
 11
7399.064575278399
 21
-6642.221885355164
 31
0.0
  0
ARC
  5
7B
330
2
100
AcDbEntity
  8
ANCON-HLD
100
AcDbCircle
 10
7437.784575278398
 20
-6663.120727428349
 30
0.0
 40
44.0
100
AcDbArc
 50
121.965718750794
 51
151.6423634236563
  0
ARC
  5
7C
330
2
100
AcDbEntity
  8
ANCON-HLD
100
AcDbCircle
 10
7437.784575278398
 20
-6663.120727428349
 30
0.0
 40
50.0
100
AcDbArc
 50
121.965718750794
 51
151.6423634236563
  0
LINE
  5
7D
330
2
100
AcDbEntity
  8
ANCON-HLD
100
AcDbLine
 10
7577.784575278399
 20
-7161.799782403099
 30
0.0
 11
7577.784575278399
 21
-6917.7997824031
 31
0.0
  0
ARC
  5
7E
330
2
100
AcDbEntity
  8
ANCON-HLD
100
AcDbCircle
 10
7527.784575278399
 20
-6663.120727428349
 30
0.0
 40
50.0
100
AcDbArc
 50
0.0
 51
58.03428124920601
  0
ARC
  5
7F
330
2
100
AcDbEntity
  8
ANCON-HLD
100
AcDbCircle
 10
7527.784575278399
 20
-6663.120727428349
 30
0.0
 40
44.0
100
AcDbArc
 50
0.0
 51
58.03428124920601
  0
LINE
  5
80
330
2
100
AcDbEntity
  8
ANCON-HLD
100
AcDbLine
 10
7577.7845752784
 20
-6989.7997824031
 30
0.0
 11
7682.784575278398
 21
-6989.7997824031
 31
0.0
  0
LINE
  5
81
330
2
100
AcDbEntity
  8
ANCON-HLD
100
AcDbLine
 10
7577.7845752784
 20
-7089.799782403099
 30
0.0
 11
7682.784575278398
 21
-7089.799782403099
 31
0.0
  0
LINE
  5
82
330
2
100
AcDbEntity
  8
CENTRE
 48
0.5
100
AcDbLine
 10
7482.784575278398
 20
-7064.799782403099
 30
0.0
 11
7482.784575278398
 21
-7014.799782403099
 31
0.0
  0
CIRCLE
  5
83
330
2
100
AcDbEntity
  8
ANCON-HLD
100
AcDbCircle
 10
7482.784575278398
 20
-7039.7997824031
 30
0.0
 40
20.0
  0
LINE
  5
84
330
2
100
AcDbEntity
  8
ANCON-HLD
100
AcDbLine
 10
7682.784575278398
 20
-6989.7997824031
 30
0.0
 11
7682.784575278398
 21
-7089.799782403099
 31
0.0
  0
LINE
  5
85
330
2
100
AcDbEntity
  8
ANCON-HLD
100
AcDbLine
 10
7685.784575278397
 20
-6989.7997824031
 30
0.0
 11
7685.784575278397
 21
-7089.799782403099
 31
0.0
  0
LINE
  5
86
330
2
100
AcDbEntity
  8
ANCON-HLD
100
AcDbLine
 10
7682.784575278398
 20
-7089.799782403099
 30
0.0
 11
7685.784575278399
 21
-7089.799782403099
 31
0.0
  0
LINE
  5
87
330
2
100
AcDbEntity
  8
ANCON-HLD
100
AcDbLine
 10
7682.784575278398
 20
-6989.7997824031
 30
0.0
 11
7685.784575278397
 21
-6989.7997824031
 31
0.0
  0
ARC
  5
88
330
2
100
AcDbEntity
  8
ANCON-HLD
100
AcDbCircle
 10
7527.784575278399
 20
-6757.342778446909
 30
0.0
 40
50.0
100
AcDbArc
 50
301.965718750794
 51
0.0
  0
ARC
  5
89
330
2
100
AcDbEntity
  8
ANCON-HLD
100
AcDbCircle
 10
7527.784575278399
 20
-6757.342778446909
 30
0.0
 40
44.0
100
AcDbArc
 50
301.965718750794
 51
0.0
  0
LINE
  5
8A
330
2
100
AcDbEntity
  8
ANCON-HLD
100
AcDbLine
 10
7577.784575278399
 20
-6757.342778446909
 30
0.0
 11
7577.784575278399
 21
-6663.120727428349
 31
0.0
  0
LINE
  5
8B
330
2
100
AcDbEntity
  8
ANCON-HLD
100
AcDbLine
 10
7571.784575278399
 20
-6757.342778446909
 30
0.0
 11
7571.784575278399
 21
-6663.120727428349
 31
0.0
  0
LINE
  5
8C
330
2
100
AcDbEntity
  8
ANCON-HLD
100
AcDbLine
 10
7685.784575278397
 20
-6678.731752937628
 30
0.0
 11
7685.784575278397
 21
-6741.731752937629
 31
0.0
  0
LINE
  5
8D
330
2
100
AcDbEntity
  8
ANCON-HLD
100
AcDbLine
 10
7682.784575278398
 20
-6741.731752937629
 30
0.0
 11
7682.784575278398
 21
-6678.731752937628
 31
0.0
  0
LINE
  5
8E
330
2
100
AcDbEntity
  8
CENTRE
100
AcDbLine
 10
7700.580870927673
 20
-6710.231752937629
 30
0.0
 11
7376.22382718747
 21
-6710.231752937629
 31
0.0
  0
LINE
  5
8F
330
2
100
AcDbEntity
  8
CENTRE
100
AcDbLine
 10
7482.784575278398
 20
-6830.231752937629
 30
0.0
 11
7482.784575278398
 21
-6590.231752937629
 31
0.0
  0
LINE
  5
90
330
2
100
AcDbEntity
  8
CENTRE
100
AcDbLine
 10
7700.580870927673
 20
-7039.7997824031
 30
0.0
 11
7376.22382718747
 21
-7039.7997824031
 31
0.0
  0
LINE
  5
91
330
2
100
AcDbEntity
  8
ANCON-HLD
100
AcDbLine
 10
7393.784575278399
 20
-6678.731752937631
 30
0.0
 11
7571.784575278399
 21
-6678.731752937631
 31
0.0
  0
LINE
  5
92
330
2
100
AcDbEntity
  8
ANCON-HLD
100
AcDbLine
 10
7577.784575278397
 20
-6678.731752937631
 30
0.0
 11
7685.784575278397
 21
-6678.731752937631
 31
0.0
  0
LINE
  5
93
330
2
100
AcDbEntity
  8
ANCON-HLD
100
AcDbLine
 10
7577.784575278397
 20
-6741.731752937629
 30
0.0
 11
7685.784575278397
 21
-6741.731752937629
 31
0.0
  0
LINE
  5
94
330
2
100
AcDbEntity
  8
CENTRE
 48
0.125
100
AcDbLine
 10
7395.637819233789
 20
-6635.231752937629
 30
0.0
 11
7385.637819233789
 21
-6635.231752937629
 31
0.0
  0
LINE
  5
95
330
2
100
AcDbEntity
  8
CENTRE
 48
0.125
100
AcDbLine
 10
7395.637819233789
 20
-6785.23175293763
 30
0.0
 11
7385.637819233789
 21
-6785.23175293763
 31
0.0
  0
LINE
  5
96
330
2
100
AcDbEntity
  8
CENTRE
 48
0.125
100
AcDbLine
 10
7395.637819233789
 20
-6910.799782403099
 30
0.0
 11
7385.637819233789
 21
-6910.799782403099
 31
0.0
  0
LINE
  5
97
330
2
100
AcDbEntity
  8
CENTRE
 48
0.125
100
AcDbLine
 10
7395.637819233789
 20
-7168.799782403098
 30
0.0
 11
7385.637819233789
 21
-7168.799782403098
 31
0.0
  0
LINE
  5
98
330
2
100
AcDbEntity
  8
ANCON-HLD
100
AcDbLine
 10
7894.937633632095
 20
-6600.23175293763
 30
0.0
 11
7792.937633632094
 21
-6600.23175293763
 31
0.0
  0
ELLIPSE
  5
99
330
2
100
AcDbEntity
  8
ANCON-HLD
100
AcDbEllipse
 10
7914.937633632096
 20
-6600.23175293763
 30
0.0
 11
-20.0
 21
0.0
 31
0.0
210
0.0
220
0.0
230
1.0
 40
0.074485038590592
 41
0.0
 42
3.141592653589793
  0
ELLIPSE
  5
9A
330
2
100
AcDbEntity
  8
ANCON-HLD
100
AcDbEllipse
 10
7914.937633632096
 20
-6820.231752937627
 30
0.0
 11
-20.0
 21
0.0
 31
0.0
210
0.0
220
0.0
230
-1.0
 40
0.074485038590592
 41
0.0
 42
3.141592653589793
  0
LINE
  5
9B
330
2
100
AcDbEntity
  8
ANCON-HLD
100
AcDbLine
 10
7894.937633632095
 20
-6820.231752937627
 30
0.0
 11
7792.937633632094
 21
-6820.231752937627
 31
0.0
  0
LINE
  5
9C
330
2
100
AcDbEntity
  8
ANCON-HLD
100
AcDbLine
 10
8036.937633632096
 20
-6820.231752937627
 30
0.0
 11
7934.937633632094
 21
-6820.231752937627
 31
0.0
  0
LINE
  5
9D
330
2
100
AcDbEntity
  8
CENTRE
  6
GRID1_01
100
AcDbLine
 10
7437.784575278398
 20
-6720.582312574649
 30
0.0
 11
7437.784575278398
 21
-6699.881193300611
 31
0.0
  0
ARC
  5
9F
330
2
100
AcDbEntity
  8
OUTLINE
  6
HIDDEN1_01
 62
     1
100
AcDbCircle
 10
7437.784575278398
 20
-6710.231752937629
 30
0.0
 40
1.5
100
AcDbArc
 50
283.5380585126256
 51
301.311996117402
  0
ARC
  5
A4
330
2
100
AcDbEntity
  8
OUTLINE
  6
HIDDEN1_01
 62
     1
100
AcDbCircle
 10
7437.784575278398
 20
-6710.231752937629
 30
0.0
 40
1.5
100
AcDbArc
 50
328.3881131426551
 51
346.4619414873384
  0
ARC
  5
A5
330
2
100
AcDbEntity
  8
OUTLINE
  6
HIDDEN1_01
 62
     1
100
AcDbCircle
 10
7437.784575278398
 20
-6710.231752937629
 30
0.0
 40
1.5
100
AcDbArc
 50
13.53805851266163
 51
31.31199611743228
  0
ARC
  5
A6
330
2
100
AcDbEntity
  8
OUTLINE
  6
HIDDEN1_01
 62
     1
100
AcDbCircle
 10
7437.784575278398
 20
-6710.231752937629
 30
0.0
 40
1.5
100
AcDbArc
 50
58.38811314264617
 51
76.46194148737437
  0
ARC
  5
A7
330
2
100
AcDbEntity
  8
OUTLINE
  6
HIDDEN1_01
 62
     1
100
AcDbCircle
 10
7437.784575278398
 20
-6710.231752937629
 30
0.0
 40
1.5
100
AcDbArc
 50
103.5380585126256
 51
121.311996117402
  0
ARC
  5
A8
330
2
100
AcDbEntity
  8
OUTLINE
  6
HIDDEN1_01
 62
     1
100
AcDbCircle
 10
7437.784575278398
 20
-6710.231752937629
 30
0.0
 40
1.5
100
AcDbArc
 50
148.3881131426551
 51
166.4619414873383
  0
ARC
  5
A9
330
2
100
AcDbEntity
  8
OUTLINE
  6
HIDDEN1_01
 62
     1
100
AcDbCircle
 10
7437.784575278398
 20
-6710.231752937629
 30
0.0
 40
1.5
100
AcDbArc
 50
193.5380585126616
 51
211.3119961174322
  0
ARC
  5
AA
330
2
100
AcDbEntity
  8
OUTLINE
  6
HIDDEN1_01
 62
     1
100
AcDbCircle
 10
7437.784575278398
 20
-6710.231752937629
 30
0.0
 40
1.5
100
AcDbArc
 50
238.3881131426462
 51
256.4619414873744
  0
LINE
  5
AB
330
2
100
AcDbEntity
  8
ANCON-HLD
100
AcDbLine
 10
7647.784575278397
 20
-6684.231752937629
 30
0.0
 11
7367.784575278398
 21
-6684.231752937629
 31
0.0
  0
LINE
  5
AC
330
2
100
AcDbEntity
  8
ANCON-HLD
100
AcDbLine
 10
7647.784575278397
 20
-6736.231752937628
 30
0.0
 11
7367.784575278398
 21
-6736.231752937628
 31
0.0
  0
LINE
  5
AD
330
2
100
AcDbEntity
  8
ANCON-HLD
100
AcDbLine
 10
7647.784575278399
 20
-7065.799782403098
 30
0.0
 11
7367.784575278399
 21
-7065.799782403098
 31
0.0
  0
LINE
  5
AE
330
2
100
AcDbEntity
  8
ANCON-HLD
100
AcDbLine
 10
7647.784575278399
 20
-7013.799782403099
 30
0.0
 11
7367.784575278399
 21
-7013.799782403099
 31
0.0
  0
LINE
  5
AF
330
2
100
AcDbEntity
  8
ANCON-HLD
100
AcDbLine
 10
7647.784575278399
 20
-7065.799782403098
 30
0.0
 11
7647.784575278399
 21
-7013.799782403099
 31
0.0
  0
LINE
  5
B0
330
2
100
AcDbEntity
  8
ANCON-HLD
100
AcDbLine
 10
7647.784575278397
 20
-6684.231752937629
 30
0.0
 11
7647.784575278397
 21
-6736.231752937628
 31
0.0
  0
LINE
  5
B1
330
2
100
AcDbEntity
  8
CENTRE
 48
0.5
100
AcDbLine
 10
7272.784575278399
 20
-6973.84101045524
 30
0.0
 11
7272.784575278399
 21
-7105.758554350956
 31
0.0
  0
CIRCLE
  5
B2
330
2
100
AcDbEntity
  8
ANCON-HLD
100
AcDbCircle
 10
7272.784575278399
 20
-7039.7997824031
 30
0.0
 40
20.0
  0
LINE
  5
B3
330
2
100
AcDbEntity
  8
ANCON-HLD
100
AcDbLine
 10
7361.784575278399
 20
-7144.799782403099
 30
0.0
 11
7361.784575278399
 21
-6934.7997824031
 31
0.0
  0
LINE
  5
B4
330
2
100
AcDbEntity
  8
ANCON-HLD
100
AcDbLine
 10
7367.784575278398
 20
-6934.7997824031
 30
0.0
 11
7367.784575278399
 21
-7144.799782403099
 31
0.0
  0
LINE
  5
B5
330
2
100
AcDbEntity
  8
ANCON-HLD
100
AcDbLine
 10
7177.784575278399
 20
-6934.7997824031
 30
0.0
 11
7177.784575278399
 21
-7144.799782403099
 31
0.0
  0
LINE
  5
B6
330
2
100
AcDbEntity
  8
ANCON-HLD
100
AcDbLine
 10
7077.784575278399
 20
-7013.799782403099
 30
0.0
 11
7077.784575278399
 21
-7065.799782403098
 31
0.0
  0
LINE
  5
B7
330
2
100
AcDbEntity
  8
ANCON-HLD
100
AcDbLine
 10
7177.784575278399
 20
-7013.799782403099
 30
0.0
 11
7077.784575278399
 21
-7013.799782403099
 31
0.0
  0
LINE
  5
B8
330
2
100
AcDbEntity
  8
ANCON-HLD
100
AcDbLine
 10
7367.784575278399
 20
-6934.7997824031
 30
0.0
 11
7177.784575278399
 21
-6934.7997824031
 31
0.0
  0
LINE
  5
B9
330
2
100
AcDbEntity
  8
ANCON-HLD
100
AcDbLine
 10
7177.784575278398
 20
-6684.231752937629
 30
0.0
 11
7077.784575278397
 21
-6684.231752937629
 31
0.0
  0
LINE
  5
BA
330
2
100
AcDbEntity
  8
ANCON-HLD
100
AcDbLine
 10
7177.784575278398
 20
-6736.231752937628
 30
0.0
 11
7077.784575278397
 21
-6736.231752937628
 31
0.0
  0
LINE
  5
BB
330
2
100
AcDbEntity
  8
ANCON-HLD
100
AcDbLine
 10
7177.784575278399
 20
-7065.799782403098
 30
0.0
 11
7077.784575278399
 21
-7065.799782403098
 31
0.0
  0
LINE
  5
BC
330
2
100
AcDbEntity
  8
ANCON-HLD
100
AcDbLine
 10
7183.784575278398
 20
-6663.120727428349
 30
0.0
 11
7183.784575278398
 21
-6757.342778446909
 31
0.0
  0
LINE
  5
BD
330
2
100
AcDbEntity
  8
ANCON-HLD
100
AcDbLine
 10
7361.784575278398
 20
-6630.231752937628
 30
0.0
 11
7361.784575278398
 21
-6790.231752937629
 31
0.0
  0
LINE
  5
BE
330
2
100
AcDbEntity
  8
ANCON-HLD
100
AcDbLine
 10
7367.784575278398
 20
-6630.231752937628
 30
0.0
 11
7367.784575278398
 21
-6790.231752937629
 31
0.0
  0
LINE
  5
BF
330
2
100
AcDbEntity
  8
ANCON-HLD
100
AcDbLine
 10
7177.784575278398
 20
-6663.120727428349
 30
0.0
 11
7177.784575278398
 21
-6757.342778446909
 31
0.0
  0
ARC
  5
C0
330
2
100
AcDbEntity
  8
ANCON-HLD
100
AcDbCircle
 10
7272.784575278397
 20
-6735.231752937629
 30
0.0
 40
129.0
100
AcDbArc
 50
58.03428124920603
 51
121.965718750794
  0
ARC
  5
C1
330
2
100
AcDbEntity
  8
ANCON-HLD
100
AcDbCircle
 10
7272.784575278397
 20
-6735.231752937629
 30
0.0
 40
135.0
100
AcDbArc
 50
58.03428124920603
 51
121.965718750794
  0
LINE
  5
C2
330
2
100
AcDbEntity
  8
ANCON-HLD
100
AcDbLine
 10
7367.784575278399
 20
-7144.799782403099
 30
0.0
 11
7177.784575278399
 21
-7144.799782403099
 31
0.0
  0
ARC
  5
C3
330
2
100
AcDbEntity
  8
ANCON-HLD
100
AcDbCircle
 10
7317.784575278398
 20
-6663.120727428349
 30
0.0
 40
44.0
100
AcDbArc
 50
28.35763657634684
 51
58.03428124920603
  0
ARC
  5
C4
330
2
100
AcDbEntity
  8
ANCON-HLD
100
AcDbCircle
 10
7317.784575278398
 20
-6663.120727428349
 30
0.0
 40
50.0
100
AcDbArc
 50
28.35763657634684
 51
58.03428124920603
  0
LINE
  5
C5
330
2
100
AcDbEntity
  8
ANCON-HLD
100
AcDbLine
 10
7361.784575278398
 20
-6639.372043254273
 30
0.0
 11
7356.504575278399
 21
-6642.221885355162
 31
0.0
  0
LINE
  5
C6
330
2
100
AcDbEntity
  8
ANCON-HLD
100
AcDbLine
 10
7361.784575278398
 20
-6639.372043254273
 30
0.0
 11
7356.504575278399
 21
-6642.221885355164
 31
0.0
  0
LINE
  5
C7
330
2
100
AcDbEntity
  8
ANCON-HLD
100
AcDbLine
 10
7367.784575278398
 20
-6630.231752937628
 30
0.0
 11
7361.784575278398
 21
-6630.231752937628
 31
0.0
  0
ARC
  5
C8
330
2
100
AcDbEntity
  8
ANCON-HLD
100
AcDbCircle
 10
7227.784575278398
 20
-6663.120727428349
 30
0.0
 40
44.0
100
AcDbArc
 50
121.965718750794
 51
180.0
  0
ARC
  5
C9
330
2
100
AcDbEntity
  8
ANCON-HLD
100
AcDbCircle
 10
7227.784575278398
 20
-6663.120727428349
 30
0.0
 40
50.0
100
AcDbArc
 50
121.965718750794
 51
180.0
  0
LINE
  5
CA
330
2
100
AcDbEntity
  8
ANCON-HLD
100
AcDbLine
 10
7361.784575278398
 20
-6736.231752937628
 30
0.0
 11
7183.784575278398
 21
-6736.231752937628
 31
0.0
  0
LINE
  5
CB
330
2
100
AcDbEntity
  8
ANCON-HLD
100
AcDbLine
 10
7361.784575278398
 20
-6684.231752937629
 30
0.0
 11
7183.784575278398
 21
-6684.231752937629
 31
0.0
  0
ARC
  5
CC
330
2
100
AcDbEntity
  8
ANCON-HLD
100
AcDbCircle
 10
7272.784575278397
 20
-6685.231752937629
 30
0.0
 40
129.0
100
AcDbArc
 50
238.034281249206
 51
301.965718750794
  0
ARC
  5
CD
330
2
100
AcDbEntity
  8
ANCON-HLD
100
AcDbCircle
 10
7272.784575278397
 20
-6685.231752937629
 30
0.0
 40
135.0
100
AcDbArc
 50
238.034281249206
 51
301.965718750794
  0
ARC
  5
CE
330
2
100
AcDbEntity
  8
ANCON-HLD
100
AcDbCircle
 10
7317.784575278398
 20
-6757.342778446909
 30
0.0
 40
50.0
100
AcDbArc
 50
301.965718750794
 51
331.6423634236532
  0
ARC
  5
CF
330
2
100
AcDbEntity
  8
ANCON-HLD
100
AcDbCircle
 10
7317.784575278398
 20
-6757.342778446909
 30
0.0
 40
44.0
100
AcDbArc
 50
301.965718750794
 51
331.6423634236532
  0
LINE
  5
D0
330
2
100
AcDbEntity
  8
ANCON-HLD
100
AcDbLine
 10
7361.784575278408
 20
-6781.091462620967
 30
0.0
 11
7356.504575278407
 21
-6778.241620520077
 31
0.0
  0
LINE
  5
D1
330
2
100
AcDbEntity
  8
ANCON-HLD
100
AcDbLine
 10
7361.784575278408
 20
-6781.091462620967
 30
0.0
 11
7356.504575278407
 21
-6778.241620520077
 31
0.0
  0
LINE
  5
D2
330
2
100
AcDbEntity
  8
ANCON-HLD
100
AcDbLine
 10
7367.784575278398
 20
-6790.231752937629
 30
0.0
 11
7361.784575278398
 21
-6790.231752937629
 31
0.0
  0
ARC
  5
D3
330
2
100
AcDbEntity
  8
ANCON-HLD
100
AcDbCircle
 10
7227.784575278398
 20
-6757.342778446909
 30
0.0
 40
44.0
100
AcDbArc
 50
180.0
 51
238.034281249206
  0
ARC
  5
D4
330
2
100
AcDbEntity
  8
ANCON-HLD
100
AcDbCircle
 10
7227.784575278398
 20
-6757.342778446909
 30
0.0
 40
50.0
100
AcDbArc
 50
180.0
 51
238.034281249206
  0
LINE
  5
D5
330
2
100
AcDbEntity
  8
ANCON-HLD
100
AcDbLine
 10
7077.784575278397
 20
-6684.231752937629
 30
0.0
 11
7077.784575278397
 21
-6736.231752937628
 31
0.0
  0
LINE
  5
D6
330
2
100
AcDbEntity
  8
CENTRE
100
AcDbLine
 10
7050.48936134838
 20
-6710.231752937629
 30
0.0
 11
7660.773281000118
 21
-6710.231752937629
 31
0.0
  0
LINE
  5
D7
330
2
100
AcDbEntity
  8
CENTRE
100
AcDbLine
 10
7050.489361348382
 20
-7039.7997824031
 30
0.0
 11
7667.702471798937
 21
-7039.7997824031
 31
0.0
  0
LINE
  5
D8
330
2
100
AcDbEntity
  8
CENTRE
100
AcDbLine
 10
7272.784575278397
 20
-6590.23175293763
 30
0.0
 11
7272.784575278397
 21
-6830.231752937631
 31
0.0
  0
LINE
  5
D9
330
2
100
AcDbEntity
  8
ANCON-CONCRETE
100
AcDbLine
 10
7387.784575278399
 20
-6573.762976876655
 30
0.0
 11
7387.784575278399
 21
-6846.700528998603
 31
0.0
  0
LINE
  5
DA
330
2
100
AcDbEntity
  8
ANCON-CONCRETE
100
AcDbLine
 10
7367.784575278398
 20
-6573.762976876655
 30
0.0
 11
7367.784575278398
 21
-6846.700528998603
 31
0.0
  0
LINE
  5
DB
330
2
100
AcDbEntity
  8
ANCON-CONCRETE
100
AcDbLine
 10
7387.784575278399
 20
-6888.331006342125
 30
0.0
 11
7387.784575278399
 21
-7191.268558464073
 31
0.0
  0
LINE
  5
DC
330
2
100
AcDbEntity
  8
ANCON-CONCRETE
100
AcDbLine
 10
7367.784575278398
 20
-6888.331006342125
 30
0.0
 11
7367.784575278398
 21
-7191.268558464073
 31
0.0
  0
LINE
  5
DD
330
2
100
AcDbEntity
  8
ANCON-TEXT
100
AcDbLine
 10
7332.718866287471
 20
-7260.275175006495
 30
0.0
 11
7332.718866287471
 21
-7313.373421140588
 31
0.0
  0
TEXT
  5
E1
330
2
100
AcDbEntity
  8
ANCON-TEXT
100
AcDbText
 10
7294.797081279067
 20
-7302.55786404749
 30
0.0
 40
5.0
  1
???
  7
ROMANS
 72
     4
 11
7301.225652707639
 21
-7300.05786404749
 31
0.0
100
AcDbText
  0
LINE
  5
E2
330
2
100
AcDbEntity
  8
ANCON-TEXT
100
AcDbLine
 10
7267.848282152673
 20
-7260.275175006495
 30
0.0
 11
7267.848282152673
 21
-7313.373421140588
 31
0.0
  0
TEXT
  5
E3
330
2
100
AcDbEntity
  8
ANCON-TEXT
100
AcDbText
 10
7273.368509850496
 20
-7270.536060668906
 30
0.0
 40
5.0
  1
SERVICEABILITY
  7
ROMANS
 72
     4
 11
7301.225652707639
 21
-7268.036060668906
 31
0.0
100
AcDbText
  0
TEXT
  5
E4
330
2
100
AcDbEntity
  8
ANCON-TEXT
100
AcDbText
 10
7276.463747945735
 20
-7281.479339607483
 30
0.0
 40
5.0
  1
LOAD ( kN )
  7
ROMANS
 72
     4
 11
7301.225652707639
 21
-7279.336482464628
 31
0.0
100
AcDbText
  0
LINE
  5
E5
330
2
100
AcDbEntity
  8
ANCON-TEXT
100
AcDbLine
 10
7207.34018859561
 20
-7260.275175006495
 30
0.0
 11
7207.34018859561
 21
-7313.373421140588
 31
0.0
  0
TEXT
  5
E6
330
2
100
AcDbEntity
  8
ANCON-TEXT
100
AcDbText
 10
7164.770667982775
 20
-7270.540891166037
 30
0.0
 40
5.0
  1
HLD REF:
  7
ROMANS
 72
     4
 11
7182.50876322087
 21
-7268.040891166037
 31
0.0
100
AcDbText
  0
TEXT
  5
E7
330
2
100
AcDbEntity
  8
ANCON-TEXT
100
AcDbText
 10
7160.987557469543
 20
-7302.319768809394
 30
0.0
 40
5.0
  1
HLD-Q 52
  7
ROMANS
 72
     4
 11
7181.225652707638
 21
-7300.05786404749
 31
0.0
100
AcDbText
  0
LINE
  5
E8
330
2
100
AcDbEntity
  8
ANCON-TEXT
100
AcDbLine
 10
7157.34018859561
 20
-7260.275175006495
 30
0.0
 11
7157.34018859561
 21
-7313.373421140588
 31
0.0
  0
LINE
  5
E9
330
2
100
AcDbEntity
  8
ANCON-TEXT
100
AcDbLine
 10
7157.34018859561
 20
-7313.373421140588
 30
0.0
 11
7332.718866287471
 21
-7313.373421140588
 31
0.0
  0
LINE
  5
EA
330
2
100
AcDbEntity
  8
ANCON-TEXT
100
AcDbLine
 10
7157.34018859561
 20
-7286.345936065541
 30
0.0
 11
7332.718866287471
 21
-7286.345936065541
 31
0.0
  0
LINE
  5
EB
330
2
100
AcDbEntity
  8
ANCON-TEXT
100
AcDbLine
 10
7157.34018859561
 20
-7260.275175006495
 30
0.0
 11
7332.718866287471
 21
-7260.275175006495
 31
0.0
  0
TEXT
  5
EC
330
2
100
AcDbEntity
  8
ANCON-TEXT
100
AcDbText
 10
7212.443856960497
 20
-7270.540891166037
 30
0.0
 40
5.0
  1
DESIGN JOINT
  7
ROMANS
 72
     4
 11
7238.515285531926
 21
-7268.040891166037
 31
0.0
100
AcDbText
  0
TEXT
  5
ED
330
2
100
AcDbEntity
  8
ANCON-TEXT
100
AcDbText
 10
7228.844700326686
 20
-7302.55786404749
 30
0.0
 40
5.0
  1
?? MM
  7
ROMANS
 72
     4
 11
7241.225652707639
 21
-7300.05786404749
 31
0.0
100
AcDbText
  0
TEXT
  5
EE
330
2
100
AcDbEntity
  8
ANCON-TEXT
100
AcDbText
 10
7227.920047436689
 20
-7281.438514553656
 30
0.0
 40
5.0
  1
WIDTH
  7
ROMANS
 72
     4
 11
7238.515285531926
 21
-7278.938514553657
 31
0.0
100
AcDbText
  0
LINE
  5
EF
330
2
100
AcDbEntity
  8
ANCON-TEXT
100
AcDbLine
 10
7671.702361645266
 20
-7292.15890078037
 30
0.0
 11
7671.702361645266
 21
-7345.192593365921
 31
0.0
  0
LINE
  5
F0
330
2
100
AcDbEntity
  8
ANCON-TEXT
100
AcDbLine
 10
7540.309964050594
 20
-7262.792387113276
 30
0.0
 11
7540.309964050594
 21
-7274.710362405278
 31
0.0
  0
LINE
  5
F1
330
2
100
AcDbEntity
  8
ANCON-TEXT
100
AcDbLine
 10
7466.985120312504
 20
-7262.792387113276
 30
0.0
 11
7466.985120312504
 21
-7274.710362405278
 31
0.0
  0
LINE
  5
F2
330
2
100
AcDbEntity
  8
ANCON-TEXT
100
AcDbLine
 10
7469.215411538626
 20
-7292.15890078037
 30
0.0
 11
7469.215411538626
 21
-7345.192593365921
 31
0.0
  0
TEXT
  5
F3
330
2
100
AcDbEntity
  8
ANCON-TEXT
100
AcDbText
 10
7474.484873023761
 20
-7341.489542934493
 30
0.0
 40
5.0
  1
LOAD OF ??? kN
  7
ROMANS
 72
     4
 11
7507.103920642808
 21
-7338.989542934491
 31
0.0
100
AcDbText
  0
LINE
  5
F4
330
2
100
AcDbEntity
  8
ANCON-TEXT
100
AcDbLine
 10
7466.985120312504
 20
-7262.792387113276
 30
0.0
 11
7540.309964050594
 21
-7262.792387113276
 31
0.0
  0
LINE
  5
F5
330
2
100
AcDbEntity
  8
ANCON-TEXT
100
AcDbLine
 10
7466.985120312504
 20
-7274.710362405278
 30
0.0
 11
7540.309964050594
 21
-7274.710362405278
 31
0.0
  0
TEXT
  5
F6
330
2
100
AcDbEntity
  8
ANCON-TEXT
100
AcDbText
 10
7468.352378354875
 20
-7271.191401991024
 30
0.0
 40
5.0
  1
ANCON HLD-Q 52
  7
ROMANS
 72
     4
 11
7503.233330735827
 21
-7268.92949722912
 31
0.0
100
AcDbText
  0
TEXT
  5
F7
330
2
100
AcDbEntity
  8
ANCON-TEXT
100
AcDbText
 10
7341.786675857339
 20
-7301.363951693615
 30
0.0
 40
5.0
  1
SPECIFICATION BY DESCRIPTION
  7
ROMANS
 72
     4
 11
7401.429533000197
 21
-7298.863951693616
 31
0.0
100
AcDbText
  0
TEXT
  5
F8
330
2
100
AcDbEntity
  8
ANCON-TEXT
100
AcDbText
 10
7341.643039247713
 20
-7271.42949722912
 30
0.0
 40
5.0
  1
SPECIFICATION BY PRODUCT
  7
ROMANS
 72
     4
 11
7395.095420200094
 21
-7268.92949722912
 31
0.0
100
AcDbText
  0
TEXT
  5
F9
330
2
100
AcDbEntity
  8
ANCON-TEXT
100
AcDbText
 10
7473.507144743466
 20
-7301.399700320141
 30
0.0
 40
5.0
  1
TWO PART STAINLESS STEEL SHEAR CONNECTOR
  7
ROMANS
 72
     4
 11
7566.126192362514
 21
-7298.899700320141
 31
0.0
100
AcDbText
  0
TEXT
  5
FA
330
2
100
AcDbEntity
  8
ANCON-TEXT
100
AcDbText
 10
7472.785960337408
 20
-7311.50441264593
 30
0.0
 40
5.0
  1
COMPRISING SLEEVE AND DOWEL COMPONENT
  7
ROMANS
 72
     4
 11
7560.762150813601
 21
-7309.00441264593
 31
0.0
100
AcDbText
  0
TEXT
  5
FB
330
2
100
AcDbEntity
  8
ANCON-TEXT
100
AcDbText
 10
7473.299092267417
 20
-7331.454617769529
 30
0.0
 40
5.0
  1
AND CAPABLE OF TRANSFERRING A SERVICEABILITY
  7
ROMANS
 72
     4
 11
7570.680044648371
 21
-7328.95461776953
 31
0.0
100
AcDbText
  0
LINE
  5
FC
330
2
100
AcDbEntity
  8
ANCON-TEXT
100
AcDbLine
 10
7469.215411538626
 20
-7345.192593365921
 30
0.0
 11
7671.702361645266
 21
-7345.192593365921
 31
0.0
  0
LINE
  5
FD
330
2
100
AcDbEntity
  8
ANCON-TEXT
100
AcDbLine
 10
7469.215411538626
 20
-7292.15890078037
 30
0.0
 11
7671.702361645266
 21
-7292.15890078037
 31
0.0
  0
TEXT
  5
FE
330
2
100
AcDbEntity
  8
ANCON-TEXT
100
AcDbText
 10
7472.844657097467
 20
-7321.4055603556
 30
0.0
 40
5.0
  1
SUITABLE FOR A DESIGN JOINT WIDTH OF ?? MM
  7
ROMANS
 72
     4
 11
7567.725609478419
 21
-7318.905560355601
 31
0.0
100
AcDbText
  0
ENDSEC
  0
SECTION
  2
OBJECTS
  0
DICTIONARY
  5
C
330
0
100
AcDbDictionary
281
     1
  3
ACAD_COLOR
350
33
  3
ACAD_GROUP
350
2F
  3
ACAD_LAYOUT
350
10
  3
ACAD_MATERIAL
350
32
  3
ACAD_MLINESTYLE
350
30
  3
ACAD_PLOTSETTINGS
350
31
  3
ACAD_PLOTSTYLENAME
350
B
  3
ACAD_TABLESTYLE
350
34
  3
ACAD_VISUALSTYLE
350
28
  3
AcDbVariableDictionary
350
101
  0
DICTIONARY
  5
25
330
23
100
AcDbDictionary
280
     1
281
     1
  3
ACAD_XREC_ROUNDTRIP
360
26
  0
DICTIONARY
  5
19
330
18
100
AcDbDictionary
280
     1
281
     1
  3
ACAD_LAYERSTATES
360
1A
  0
DICTIONARY
  5
8
330
7
100
AcDbDictionary
280
     1
281
     1
  3
ADSK_XREC_LAYER_RECONCILED
360
9
  0
DICTIONARY
  5
36
330
35
100
AcDbDictionary
280
     1
281
     1
  3
ADSK_XREC_LAYER_RECONCILED
360
37
  0
DICTIONARY
  5
DF
330
DE
100
AcDbDictionary
280
     1
281
     1
  3
ADSK_XREC_LAYER_RECONCILED
360
E0
  0
DICTIONARY
  5
A1
330
A0
100
AcDbDictionary
280
     1
281
     1
  3
ADSK_XREC_LAYER_RECONCILED
360
A2
  0
DICTIONARY
  5
4D
330
4C
100
AcDbDictionary
280
     1
281
     1
  3
ADSK_XREC_LAYER_RECONCILED
360
4E
  0
DICTIONARY
  5
3
330
2
100
AcDbDictionary
280
     1
281
     1
  3
ACAD_LAYOUTSELFREF
360
4
  3
ACAD_SORTENTS
360
FF
  0
DICTIONARY
  5
13
330
12
100
AcDbDictionary
280
     1
281
     1
  3
ACAD_LAYOUTSELFREF
360
14
  0
DICTIONARY
  5
33
102
{ACAD_REACTORS
330
C
102
}
330
C
100
AcDbDictionary
281
     1
  0
DICTIONARY
  5
2F
102
{ACAD_REACTORS
330
C
102
}
330
C
100
AcDbDictionary
281
     1
  0
DICTIONARY
  5
10
102
{ACAD_REACTORS
330
C
102
}
330
C
100
AcDbDictionary
281
     1
  3
Layout1
350
17
  3
Model
350
F
  0
DICTIONARY
  5
32
102
{ACAD_REACTORS
330
C
102
}
330
C
100
AcDbDictionary
281
     1
  0
DICTIONARY
  5
30
102
{ACAD_REACTORS
330
C
102
}
330
C
100
AcDbDictionary
281
     1
  3
STANDARD
350
38
  0
DICTIONARY
  5
31
102
{ACAD_REACTORS
330
C
102
}
330
C
100
AcDbDictionary
281
     1
  0
ACDBDICTIONARYWDFLT
  5
B
102
{ACAD_REACTORS
330
C
102
}
330
C
100
AcDbDictionary
281
     1
  3
Normal
350
A
100
AcDbDictionaryWithDefault
340
A
  0
DICTIONARY
  5
34
102
{ACAD_REACTORS
330
C
102
}
330
C
100
AcDbDictionary
281
     1
  3
Standard
350
39
  0
DICTIONARY
  5
28
102
{ACAD_REACTORS
330
C
102
}
330
C
100
AcDbDictionary
281
     1
  3
2dWireframe
350
27
  0
DICTIONARY
  5
101
102
{ACAD_REACTORS
330
C
102
}
330
C
100
AcDbDictionary
281
     1
  3
CTABLESTYLE
350
102
  0
XRECORD
  5
26
102
{ACAD_REACTORS
330
25
102
}
330
25
100
AcDbXrecord
280
     1
102
VTR_0.000_0.000_1.000_1.000_VISUALSTYLE
340
27
102
VTR_0.000_0.000_1.000_1.000_GRIDDISPLAY
 70
     3
102
VTR_0.000_0.000_1.000_1.000_GRIDMAJOR
 70
     5
102
VTR_0.000_0.000_1.000_1.000_DEFAULTLIGHTING
280
     1
102
VTR_0.000_0.000_1.000_1.000_DEFAULTLIGHTINGTYPE
 70
     1
102
VTR_0.000_0.000_1.000_1.000_BRIGHTNESS
141
0.0
102
VTR_0.000_0.000_1.000_1.000_CONTRAST
142
0.0
  0
DICTIONARY
  5
1A
102
{ACAD_REACTORS
330
19
102
}
330
19
100
AcDbDictionary
281
     1
  0
XRECORD
  5
9
102
{ACAD_REACTORS
330
8
102
}
330
8
100
AcDbXrecord
280
     1
290
     1
  0
XRECORD
  5
37
102
{ACAD_REACTORS
330
36
102
}
330
36
100
AcDbXrecord
280
     1
290
     1
  0
XRECORD
  5
E0
102
{ACAD_REACTORS
330
DF
102
}
330
DF
100
AcDbXrecord
280
     1
290
     1
  0
XRECORD
  5
A2
102
{ACAD_REACTORS
330
A1
102
}
330
A1
100
AcDbXrecord
280
     1
290
     1
  0
XRECORD
  5
4E
102
{ACAD_REACTORS
330
4D
102
}
330
4D
100
AcDbXrecord
280
     1
290
     1
  0
XRECORD
  5
4
102
{ACAD_REACTORS
330
3
102
}
330
3
100
AcDbXrecord
280
     1
340
2
  0
SORTENTSTABLE
  5
FF
102
{ACAD_REACTORS
330
3
102
}
330
3
100
AcDbSortentsTable
330
2
  0
XRECORD
  5
14
102
{ACAD_REACTORS
330
13
102
}
330
13
100
AcDbXrecord
280
     1
340
12
  0
LAYOUT
  5
17
102
{ACAD_REACTORS
330
10
102
}
330
10
100
AcDbPlotSettings
  1

  2
None
  4

  6

 40
0.0
 41
0.0
 42
0.0
 43
0.0
 44
0.0
 45
0.0
 46
0.0
 47
0.0
 48
0.0
 49
0.0
140
0.0
141
0.0
142
1.0
143
1.0
 70
   688
 72
     0
 73
     0
 74
     5
  7
Std pen settings.ctb
 75
    16
147
1.0
 76
     0
 77
     2
 78
   300
148
0.0
149
0.0
100
AcDbLayout
  1
Layout1
 70
     1
 71
     1
 10
0.0
 20
0.0
 11
420.0
 21
297.0
 12
0.0
 22
0.0
 32
0.0
 14
1.000000000000000E+20
 24
1.000000000000000E+20
 34
1.000000000000000E+20
 15
-1.000000000000000E+20
 25
-1.000000000000000E+20
 35
-1.000000000000000E+20
146
0.0
 13
0.0
 23
0.0
 33
0.0
 16
1.0
 26
0.0
 36
0.0
 17
0.0
 27
1.0
 37
0.0
 76
     0
330
12
  0
LAYOUT
  5
F
102
{ACAD_REACTORS
330
10
102
}
330
10
100
AcDbPlotSettings
  1

  2
none_device
  4
Letter_(8.50_x_11.00_Inches)
  6

 40
6.349999904632568
 41
6.349999904632568
 42
6.350006103515625
 43
6.350006103515625
 44
215.8999938964844
 45
279.3999938964844
 46
0.0
 47
0.0
 48
0.0
 49
0.0
140
0.0
141
0.0
142
1.0
143
190.4825914125939
 70
 11952
 72
     0
 73
     1
 74
     0
  7
Std pen settings.ctb
 75
     0
147
0.005249823580119
 76
     0
 77
     2
 78
   300
148
-187605.733827711
149
104251.2692448299
100
AcDbLayout
  1
Model
 70
     1
 71
     0
 10
0.0
 20
0.0
 11
12.0
 21
9.0
 12
0.0
 22
0.0
 32
0.0
 14
0.0
 24
0.0
 34
0.0
 15
0.0
 25
0.0
 35
0.0
146
0.0
 13
0.0
 23
0.0
 33
0.0
 16
1.0
 26
0.0
 36
0.0
 17
0.0
 27
1.0
 37
0.0
 76
     0
330
2
1001
ACAD_PSEXT
1000
None
1000
None
1000
Not applicable
1000
The layout will not be plotted unless a new plotter configuration name is selected.
1070
     0
  0
MLINESTYLE
  5
38
102
{ACAD_REACTORS
330
30
102
}
330
30
100
AcDbMlineStyle
  2
STANDARD
 70
     0
  3

 62
   256
 51
90.0
 52
90.0
 71
     2
 49
0.5
 62
   256
  6
BYLAYER
 49
-0.5
 62
   256
  6
BYLAYER
  0
ACDBPLACEHOLDER
  5
A
102
{ACAD_REACTORS
330
B
102
}
330
B
  0
TABLESTYLE
  5
39
102
{ACAD_XDICTIONARY
360
3A
102
}
102
{ACAD_REACTORS
330
34
102
}
330
34
100
AcDbTableStyle
  3
Standard
 70
     0
 71
     0
 40
0.06
 41
0.06
280
     0
281
     0
  7
STANDARD
140
0.18
170
     2
 62
     0
 63
     7
283
     0
274
    -2
284
     1
 64
     0
275
    -2
285
     1
 65
     0
276
    -2
286
     1
 66
     0
277
    -2
287
     1
 67
     0
278
    -2
288
     1
 68
     0
279
    -2
289
     1
 69
     0
  7
STANDARD
140
0.25
170
     5
 62
     0
 63
     7
283
     0
274
    -2
284
     1
 64
     0
275
    -2
285
     1
 65
     0
276
    -2
286
     1
 66
     0
277
    -2
287
     1
 67
     0
278
    -2
288
     1
 68
     0
279
    -2
289
     1
 69
     0
  7
STANDARD
140
0.18
170
     5
 62
     0
 63
     7
283
     0
274
    -2
284
     1
 64
     0
275
    -2
285
     1
 65
     0
276
    -2
286
     1
 66
     0
277
    -2
287
     1
 67
     0
278
    -2
288
     1
 68
     0
279
    -2
289
     1
 69
     0
  0
ACAD_PROXY_OBJECT
  5
27
102
{ACAD_REACTORS
330
28
102
}
330
28
100
AcDbProxyObject
 90
      499
 91
      512
 95
   983063
 70
     0
 93
      444
310
430C9915DA5C99599C985B59401049028333333333333E3BF0000000000000FB0107901411070040501600405405064090741402480A0340
 94
        0
1001
ACAD
1000
AcDbSavedByObjectVersion
1070
     0
  0
DICTIONARYVAR
  5
102
102
{ACAD_REACTORS
330
101
102
}
330
101
100
DictionaryVariables
280
     0
  1
STANDARD
  0
DICTIONARY
  5
3A
330
39
100
AcDbDictionary
280
     1
281
     1
  3
ACAD_ROUNDTRIP_2008_TABLESTYLE_CELLSTYLEMAP
360
3B
  3
ACAD_XREC_ROUNDTRIP
360
3C
  0
ACAD_PROXY_OBJECT
  5
3B
102
{ACAD_REACTORS
330
3A
102
}
330
3A
100
AcDbProxyObject
 90
      499
 91
      518
 95
   983063
 70
     0
 93
     4020
310
40D054060020000020000003200101A412A5058000000C100000000000000340FE419019018000000C1003FBFFFFFE02B5E8DC0F42A9CFD029018000000C1003FBFFFFFE02B5E8DC0F42A9CFD049018000000C1003FBFFFFFE02B5E8DC0F42A9CFD089018000000C1003FBFFFFFE02B5E8DC0F42A9CFD109018000000C1003
310
FBFFFFFE02B5E8DC0F42A9CFD209018000000C1003FBFFFFFE02B5E8DC0F42A9CFD01405075F5449544C450041501A8000000C800406904A9416000000304000AD7A3703D0AC73F90640640600000030400FEFFFFFF80AD7A3703D0AA73F40A40600000030400FEFFFFFF80AD7A3703D0AA73F41240600000030400FEFFFFF
310
F80AD7A3703D0AA73F42240600000030400FEFFFFFF80AD7A3703D0AA73F44240600000030400FEFFFFFF80AD7A3703D0AA73F48240600000030400FEFFFFFF80AD7A3703D0AA73F409014217D2115051115480105406A0000003200101A412A5028000000C10002B5E8DC0F42B1CFE419019018000000C1003FBFFFFFE02B
310
5E8DC0F42A9CFD029018000000C1003FBFFFFFE02B5E8DC0F42A9CFD049018000000C1003FBFFFFFE02B5E8DC0F42A9CFD089018000000C1003FBFFFFFE02B5E8DC0F42A9CFD109018000000C1003FBFFFFFE02B5E8DC0F42A9CFD209018000000C1003FBFFFFFE02B5E8DC0F42A9CFD03409065F44415441000
340
1C
340
0
340
0
340
0
340
0
340
0
340
0
340
1C
340
0
340
0
340
0
340
0
340
0
340
0
340
1C
340
0
340
0
340
0
340
0
340
0
340
0
 94
        0
  0
XRECORD
  5
3C
102
{ACAD_REACTORS
330
3A
102
}
330
3A
100
AcDbXrecord
280
     1
102
ACAD_ROUNDTRIP_PRE2007_TABLESTYLE
 90
        4
 91
        0
  1

 92
        4
 93
        0
  2

 94
        4
 95
        0
  3

  0
ENDSEC
  0
EOF
